Oops, an error
Loading. Please wait.

Poparazzi tab

1,842 views 1 this week
no commentswrite comment
1 2 3 4 5
2 more votes to show rating
add to favorites
×
Save as Personal and add changes to this tab that will be seen only by you. Learn more ›
×
You can save this tab as Personal to edit and correct it or add notes. All changes will be seen only by you. Learn more »
launch autoscroll
font size
0
reset
how to read this tab
guitar tuner
edit
Autoscroll
slow
fast
+/-
esc
set tempo
stop
Author
Difficulty
Poparazzi
Switchfoot



INTRO
  Gtr I (w/distortion)
|----------------------|-------------------------|
|------4----4-4-4-4----|--------------4----4-4---|
|------6b8==6-6-6-6r---|--------------6b8==6-6r--|
|----------------------|---5---5-5-3-------------|
|----------------------|-3---3-------------------|
|----------------------|-------------------------|
|
| Gtr II (clean)
|----------------------|-------------------------|
|----------------------|-------------------------|
|----------------------|-------------------------|
|----------------------|-2-----5-5-3-------------|
|--------------------1-|-3-x-x--------0----0-1---|
|----------------------|-------------------------|

                *1/4 bend
|---------------------------------|
|---------------------------------|
|---------------------------------|
|--------------3b3.5====3-3-3-3r--|
|-3-3-5-1-5-1---------------------|
|---------------------------------|
|
|---------------------------------|
|---------------------------------|
|---------------------------------|
|---------------------------------|
|-3-3-5-1-5-1---------------------|
|---------------------------------|

|-------------------------|-----------------|
|--------------4----4-4---|-----------------|
|--------------6b8==6-6r--|-----------------|
|---5---5-5-3-------------|-----------------|
|-3---3-------------------|-3-3-5-1-5-------|
|-------------------------|-----------1-----|
|
|-------------------------|-----------------|
|-------------------------|-----------------|
|-------------------------|-----------------|
|-------5-5-3-------------|-----------------|
|-3-x-x--------0----0-1---|-3-3-5-1-5-------|
|-------------------------|-----------1-----|


 VERSE 1
  Gtrs I, III (w/distortion)
  C7                *1/4 bend        C7
|----------------------------------|-----------------------------|
|----------------------------------|----------------4-----4-4-4--|
|---3---3-3---3--------------------|---3---3-3---3--6b8===6-6-6r-|
|---2---2-2---2--x-3b3.5====3-3-3r-|---2---2-2---2---------------|
|-3---3-----3----x-----------------|-3---3-----3-----------------|
|----------------------------------|-----------------------------|

  C7                *1/4 bend       C7
|---------------------------------|-----------------------------------|
|---------------------------------|----------------3h4p3---1--1h3p1---|
|---3---3-3---3-------------------|---3---3-3---3---------------------|
|---2---2-2---2--x-3b3.5===3-3-3r-|---2---2-2---2---------------------|
|-3---3-----3----x----------------|-3---3-----3-----------------------|
|---------------------------------|-----------------------------------|
|
| Gtr IV (w/distortion)
|---------------------------------|-----------------------------------|
|---------------------------------|--------------------4--------(4)---|
|---------------------------------|--------------------6b8======(6)r--|
|---------------------------------|-----------------------------------|
|---------------------------------|-----------------------------------|
|---------------------------------|-----------------------------------|


 CHORUS 1
  A5              F5                A5             G#5
|---------------------------------|----------------------------|
|---------------------------------|----------------------------|
|---------------------------------|----------------------------|
|-7-7-7-7-7-7-7---3-3-3-3-3-3-3-3-|-7-7-7-7-7-7-7--6--6--6--6--|
|-7-7-7-7-7-7-7-0-3-3-3-3-3-3-3-3-|-7-7-7-7-7-7-7--6--6--6--6--|
|-5-5-5-5-5-5-5-0-1-1-1-1-1-1-1-1-|-5-5-5-5-5-5-5--4--4--4--4--|

  C5     g#     a      e5            C5     g#     a      e5
|----------------------------------|-----------------------------------|
|----------------------------------|-----------------------------------|
|--------13-13--14-14--10-10-10-10-|--------13-13--14-14--10-10-10-10--|
|-10-x-x---------------10-10-10-10-|-10-x-x---------------10-10-10-10--|
|-10-x-x-11-11--12-12---8--8--8--8-|-10-x-x-11-11--12-12---8--8--8--8--|
|--8-x-x---------------------------|--8-x-x----------------------------|

  C5       b           a        *1/4 bend       G#
|--------------------------------------------|--^4---^4-------|
|--------------------------------------------|--^4---^4-------|
|----------16-16-16-16-14-14-----------------|--^5---^5-------|
|-10-10-10--------------------12b12.5==(12)r-|--^6---^6-------|
|-10-10-10-14-14-14-14-12-12-----------------|--^6---^6-----1-|
|--8--8--8-----------------------------------|----------------|

  Gtr II
|--------------------------------|---------------------------|
|--------------------------------|---------------------------|
|--------------------------------|---------------------------|
|---5---5-5-3--------------------|---------------------------|
|-3---3---------------0--0--1----|-3-3-5-1-5-----------------|
|--------------------------------|-----------1---------------|
|
| Gtr IV
|--------------------------------|---------------------------|
|---------------4----(4)---(4)---|--------------4-----4-4-4--|
|---------------6b8==(6)---(6)r--|--------------6b8===6-6-6r-|
|--------------------------------|---------------------------|
|--------------------------------|---------------------------|
|--------------------------------|---------------------------|


 VERSE 2
    Gtrs I, III
    C7                *1/4 bend       C7                           x2
||----------------------------------|------------------------------||
||o---------------------------------|----------------4-----4-4-4--o||
||----3---3-3---3-------------------|---3---3-3---3--6b8===6-6-6r--||
||----2---2-2---2--x-3b3.5===3-3-3r-|---2---2-2---2----------------||
||o-3---3-----3----x----------------|-3---3-----3-----------------o||
||----------------------------------|------------------------------||


 CHORUS 2
  A5              F5                A5             G#5
|---------------------------------|----------------------------|
|---------------------------------|----------------------------|
|---------------------------------|----------------------------|
|-7-7-7-7-7-7-7---3-3-3-3-3-3-3-3-|-7-7-7-7-7-7-7--6--6--6--6--|
|-7-7-7-7-7-7-7-0-3-3-3-3-3-3-3-3-|-7-7-7-7-7-7-7--6--6--6--6--|
|-5-5-5-5-5-5-5-0-1-1-1-1-1-1-1-1-|-5-5-5-5-5-5-5--4--4--4--4--|

  C5     g#     a      e5            C5     g#     a      e5
|----------------------------------|-----------------------------------|
|----------------------------------|-----------------------------------|
|--------13-13--14-14--10-10-10-10-|--------13-13--14-14--10-10-10-10--|
|-10-x-x---------------10-10-10-10-|-10-x-x---------------10-10-10-10--|
|-10-x-x-11-11--12-12---8--8--8--8-|-10-x-x-11-11--12-12---8--8--8--8--|
|--8-x-x---------------------------|--8-x-x----------------------------|

  C5       b           a                        G#
|--------------------------------------------|--^4---^4---^4----|
|--------------------------------------------|--^4---^4---^4----|
|----------16-16-16-16-14-14-----------------|--^5---^5---^5----|
|-10-10-10--------------------12b12.5==(12)r-|--^6---^6---^6----|
|-10-10-10-14-14-14-14-12-12-----------------|--^6---^6---^6----|
|--8--8--8-----------------------------------|------------------|

                    BRIDGE
 Piano solo          e5                              x2
|---------|------||----------------------------------||
|--rest---|-rest-||o----------------8------8--8--8--o||
|--four---|--2---||--9-9-9-9-9-9---10b12==10-10-10r--||
|--beats--|-beats||--9-9-9-9-9-9---------------------||
|---------|------||o-7-7-7-7-7-7--------------------o||
|---------|------||----------------------------------||

   Gtr III
    C     Am      F      G      x4
||----^-8----^5-----^1-----^3---||
||o---^-8----^5-----^1-----^3--o||
||----^-9----^5-----^2-----^4---||
||----^10----^7-----^3-----^5---||
||o----------------------------o||
||--8-----5-----0-1----0-3------||

 CHORUS 3
  A5              F5
|---------------------------------|
|---------------------------------|
|---------------------------------|
|---------------------------------|
|---------------------------------|
|-5-5-5-5-5-5-5-5-1-1-1-1-1-1-1-1-|

  A5              F5                A5              F5
|---------------------------------|---------------------------------|
|---------------------------------|---------------------------------|
|---------------------------------|---------------------------------|
|---------------------------------|---------------------------------|
|---------------------------------|-7-7-7-7-7-7-7-7-3-3-3-3-3-3-3-3-|
|-5-5-5-5-5-5-5-5-1-1-1-1-1-1-1-1-|-5-5-5-5-5-5-5-5-1-1-1-1-1-1-1-1-|

  Gtrs I, III
  G#5
|-------------------------|-------------------------------|
|-------------------------|-------------------------------|
|-------------------------|-------------------------------|
|-6--6--6--6--6--6--6--6--|-6--6--6-6-6-6-6-6-6-6-6-6-6-6-|
|-6--6--6--6--6--6--6--6--|-6--6--6-6-6-6-6-6-6-6-6-6-6-6-|
|-4--4--4--4--4--4--4--4--|-4--4--4-4-4-4-4-4-4-4-4-4-4-4-|


  C5     g#     a                    C5     g#     a
|----------------------------------|----------------------------------|
|----------------------4----4-4-4--|----------------------4----4-4-4--|
|--------13-13--14-14--6b8==6-6-6r-|--------13-13--14-14--6b8==6-6-6r-|
|-10-x-x---------------------------|-10-x-x---------------------------|
|-10-x-x-11-11--12-12--------------|-10-x-x-11-11--12-12--------------|
|--8-x-x---------------------------|--8-x-x---------------------------|

  C5       b           a                        G# 
|--------------------------------------------|--^4---^4---^4---^4--|
|--------------------------------------------|--^4---^4---^4---^4--|
|----------16-16-16-16-14-14-----------------|--^5---^5---^5---^5--|
|-10-10-10--------------------12b12.5==(12)r-|--^6---^6---^6---^6--|
|-10-10-10-14-14-14-14-12-12-----------------|--^6---^6---^6---^6--|
|--8--8--8-----------------------------------|---------------------|

   G#
|--^4---^4------|----------|-----------------|
|--^4---^4------|--rest----|------4----4-4---|
|--^5---^5------|---2------|------6b8==6-6r--|
|--^6---^6------|-measures-|-----------------|
|--^6---^6------|----------|-----------------|
|---------------|----------|-----------------|


 OUTRO
  C7
|---------------------------------------------------------------------|
|------------------------------------------------------4-------4-4-4--|
|----------------3----3---------3------3---------------6b8=====6-6-6r-|
|----------------2----2---------2------2------------------------------|
|--3---------------3----------------3---------------------------------|
|---------------------------------------------------------------------|
|
|   *3/4 bend          *3/4 bend        *3/4 bend       *3/4 bend
|---------------------------------------------------------------------|
|-12b13.5==(12)r-----12b13.5==(12)r---12b13.5==(12)r--12b13.5=(12)r---|
|---------------------------------------------------------------------|
|---------------------------------------------------------------------|
|---------------------------------------------------------------------|
|---------------------------------------------------------------------|

  C7
|--------------------------------------------------------------------|
|-------------------------------------------------------4----4-4-4---|
|-----------3-----------3-3--------3--------------------6b8==6-6-6r--|
|-----------2-----------2-2--------2---------------------------------|
|--3--------------3----------3---------------------------------------|
|--------------------------------------------------------------------|
|
|   *3/4 gradual bend...      *gradual bend...............
|---------------------------15b17====15-15-15-15-15-15-15r-----------|
|-12b13.5===12-12-12-12r---------------------------------------------|
|--------------------------------------------------------------------|
|--------------------------------------------------------------------|
|--------------------------------------------------------------------|
|--------------------------------------------------------------------|

  C7
|----------------------------------------------------------|
|-------------------------------------4-----(4)--4--4---4--|
|-------------3----3-------3-----3----6b8h==(6)--6--6---6r-|
|-------------2----2-------2-----2-------------------------|
|--3------------3--------------3---------------------------|
|----------------------------------------------------------|
|
|                                       *1/2 bend 
|-20b22h=(20)r-----20b22h=(20)r------/20b21h=20--20-20r\---|
|----------------------------------------------------------|
|----------------------------------------------------------|
|----------------------------------------------------------|
|----------------------------------------------------------|
|----------------------------------------------------------|

  C7
|----------------------------|
|----------------4----4-4-4--|
|---3---3-3---3--6b8==6-6-6r-|
|---2---2-2---2--------------|
|-3---3-----3----------------|
|----------------------------|

  C7               *1/4 bend       C7
|--------------------------------|----------------------------|
|--------------------------------|----------------4----4-4-4--|
|---3---3-3---3------------------|---3---3-3---3--6b8==6-6-6r-|
|---2---2-2---2--x-3b3.5==3-3-3r-|---2---2-2---2--------------|
|-3---3-----3----x---------------|-3---3-----3----------------|
|--------------------------------|----------------------------|

  C7                *1/4 bend      Gtr II (clean)
|--------------------------------|----------------*|
|--------------------------------|----------------*|
|---3---3-3---3------------------|----------------*|
|---2---2-2---2--x-3b3.5==3-3-3r-|-2-----5-5-3----*|
|-3---3-----3----x---------------|-3-x-x----------*|
|--------------------------------|----------------*|


Tablature Legend
----------------
 h   - hammer-on
 p   - pull-off
 b   - bend
 r   - bend release (if no number after the r, then release immediately)
 /\  - slide into or out of (from/to "nowhere")
 =   - hold bend; also acts as connecting device for hammers/pulls
 x   - on rhythm slash represents muted slash
 ^   - arpeggio (downward sweep of pick on a chord)

Misc Legend
-----------
 |  - bar
||  - double bar
||o - repeat start
o|| - repeat end
*|  - double bar (ending)

            
            
Suggest correction
Creating personal tab
Creating personal tab
You can edit any tab online and save it as your Personal.

You can edit, replace or remove any tab part or add personal notes – all changes will be seen only by you.

Personal tabs can be accessed anytime from any device, even offline.
Learn more »
Give kudos to tab author, rate the tab!
1 2 3 4 5
comments
print report bad tab
guest
You may want to rate the tab now too:
select rating
Wanna post a correction for this tab? Suggest correction