Oops, an error
Loading. Please wait.

Redemption tab

version 2
version 2

Whole song

737 views 1 this week
no commentswrite comment
1 2 3 4 5
2 more votes to show rating
add to favorites
×
Save as Personal and add changes to this tab that will be seen only by you. Learn more ›
×
You can save this tab as Personal to edit and correct it or add notes. All changes will be seen only by you. Learn more »
launch autoscroll
font size
0
reset
how to read this tab
guitar tuner
edit
Autoscroll
slow
fast
+/-
esc
set tempo
stop
Author
Difficulty
intro: acoustic
e----------------------------------------------->
B----------------------------------------------->
G----------------------------------------------->
D-2-2-22---------------------------------------->
A----------------3-3-33---------2-2-223-3-3-333->
E-------3-33-3333------3-33-3333---------------->

intro: keyboard I think, here’s how to play it
/e----------------------------------------------->\
|B----------------------------------------------->|
|G-16~------14~-----12~----9~------7~--4-5-4-5-2->|
|D----------------------------------------------->|
|A-14~------12~-----10~----7~------5~--2-3-2-3-2->|
|E----------------------------------------------->|
|                                                 |
|intro: acoustic                                  |
|e----------------------------------------------->|
|B----------------------------------------------->|
|G----------------------------------------------->|
|D-2-2-22---------------------------------------->|
|A----------------3-3-33---------2-2-223-3-3-333->|
\E-------3-33-3333------3-33-3333---------------->/

verse 1: electric
e----------------------------------------------->
B----------------------------------------------->
G-9-9-99---------5-5-55---------4-4-445-5-5-555->
D-9-9-995-55-55555-5-555-55-55554-4-445-5-5-555->
A-7-7-775-55-55553-3-335-55-55552-2-223-3-3-333->
E-------3-33-3333------3-33-3333---------------->
4am two hours ago I am wearing out a lonely glow

verse 1:
e----------------------------------------------->
B----------------------------------------------->
G-9-9-99---------5-5-55---------4-4-445~-------->
D-9-9-995-55-55555-5-555-55-55554-4-445~-------->
A-7-7-775-55-55553-3-335-55-55552-2-223~-------->
E-------3-33-3333------3-33-3333---------------->
I’m missing more than I can know here I am, here I am, won’t you get me?

chorus:
e-0000000000000000000000000000000000000000000000000000000000000000->
B-0000000000000000000000000000000000000000000000000000000000000000->
G-9999999966666666666666666666888899999999666666666666666666665555->
D-9999999966666666777777777777999999999999666666667777777777775555->
A-7777777744444444777777777777999977777777444444447777777777773333->
E-00000000--------555555555555777700000000--------555555555555----->
I’ve got my hands at Redemption’s side whose scars are bigger than these
doubts of mine I’ll fit

chorus:
e-0000000000000000000000000------------>
B-0000000000000000000000000------------>
G-6666666644444444222222224------------>
D-6666666644444444222222224------------>
A-4444444422222222000000002------------>
E-------------------------------------->
all of these monstrosities inside and I’ll come alive

post-chorus: electric
/e-0-0-000-00-00000-0-000-0-000-00-00000-0-00->\
|B-0-0-000-00-00000-0-000-0-000-00-00000-0-00->|
|G-9-9-997-77-77775-5-559-9-997-77-77775-5-55->|
|D-9-9-997-77-77775-5-559-9-997-77-77775-5-55->|
|A-7-7-775-55-55553-3-337-7-775-55-55553-3-33->|
|E-------------------------------------------->|
|                                              |
|post-chorus: acoustic                         |
|e-------------------------------------------->|
|B-------------------------------------------->|
|G----------------5-5-55---------------5-5-55->|
|D-2-2-225-55-55555-5-552-2-225-55-55555-5-55->|
|A-2-2-225-55-55553-3-332-2-225-55-55553-3-33->|
\E-0-0-003-33-3333------0-0-003-33-3333------->/
come alive

verse 2: drums, keyboard
with my fist down at your feet, I’ve been running out of mysteries

verse 2: keyboard thing
e----------------------------------------------->
B----------------------------------------------->
G-16~------14~-----12~----9~------7~--4-5-4-5-2->
D----------------------------------------------->
A-14~------12~-----10~----7~------5~--2-3-2-3-2->
E----------------------------------------------->
insecure and incomplete here I am, here I am, won’t you get me?

---REPEAT CHORUS
---REPEAT POST-CHORUS

post-chorus 2: keyboard thing again
/e-------------------------------------------->\
|B-------------------------------------------->|
|G-16~------14~-----12~----9~------7~--4-5-4-->|
|D-------------------------------------------->|
|A-14~------12~-----10~----7~------5~--2-3-2-->|
|E-------------------------------------------->|
|                                              |
|post-chorus 2: acoustic                       |
|e-------------------------------------------->|
|B-------------------------------------------->|
|G----------------5-5-55---------------5-5-55->|
|D-2-2-225-55-55555-5-552-2-225-55-55555-5-55->|
|A-2-2-225-55-55553-3-332-2-225-55-55553-3-33->|
\E-0-0-003-33-3333------0-0-003-33-3333------->/
alive my fears have

bridge: electric
e-0-0-000-00-00000-0-000-0-000-00-00000-0-000-0-000-00-00000-0-000-0-000-0->
B-0-0-000-00-00000-0-000-0-000-00-00000-0-000-0-000-00-00000-0-000-0-000-0->
G------------------------------------------------------------2-222-2-222-2->
D-------------------------------------------------------------------------->
A-------------------------------------------------------------------------->
E-------------------------------------------------------------------------->
worn me out my fears have worn me out yeah, my fears have worn me out my
fears have worn me, worn me, yeah

---REPEAT CHORUS
---REPEAT CHORUS
---REPEAT POST-CHORUS

end on: both guitars
e-0~-------------->
B-0~-------------->
G-1~-------------->
D-2~-------------->
A-2~-------------->
E-0~-------------->

            
            
Suggest correction
Creating personal tab
Creating personal tab
You can edit any tab online and save it as your Personal.

You can edit, replace or remove any tab part or add personal notes – all changes will be seen only by you.

Personal tabs can be accessed anytime from any device, even offline.
Learn more »
Give kudos to tab author, rate the tab!
1 2 3 4 5
comments
print report bad tab
guest
You may want to rate the tab now too:
select rating
Wanna post a correction for this tab? Suggest correction