Oops, an error
Loading. Please wait.

Redemption tab

version 3
version 3

Whole song

3,710 views 1 this week
1 commentread comment
1 2 3 4 5
x 6
add to favorites
×
Save as Personal and add changes to this tab that will be seen only by you. Learn more ›
×
You can save this tab as Personal to edit and correct it or add notes. All changes will be seen only by you. Learn more »
launch autoscroll
font size
0
reset
how to read this tab
guitar tuner
edit
Autoscroll
slow
fast
+/-
esc
set tempo
stop
Difficulty
intermediate
Artist: Switchfoot
Song: Redemption
Album: The Beautiful Letdown (Red Ink/Columbia) (2003)
Composer: Jon Foreman
Tabbed by: José D. Montenegro M.
Tuning: Standard (EADGBe)

Intro:
Guitar 1 (00:00):
     E    G     C     G     B     C
e|--------------------------------------|
B|--------------------------------------|
G|--9999-------55555-------44444/55555--| x2
D|--9999-55555-55555-55555-44444/55555--|
A|--7777-55555-33333-55555-22222/33333--|
E|-------33333-------33333--------------|

Guitar 2 (00:08):
e|--77777-55555-33333---------------------------|
B|--------------------55555-33333-00h1-0-00h1-0-|
G|----------------------------------------------|
D|----------------------------------------------|
A|----------------------------------------------|
E|----------------------------------------------|
* Repeat this riff after 'mysteries…' (01:10) in verse 2)

Verse 1 (00:18):
     E    G     C     G     B     C
e|--------------------------------------|
B|--------------------------------------|
G|--9999-------55555-------44444/55555--|
D|--9999-55555-55555-55555-44444/55555--|
A|--7777-55555-33333-55555-22222/33333--|
E|-------33333-------33333--------------|
4 a.m. two hours to go, I'm wearing out a lonely glow
     E    G     C     G     A     B
e|------------------------------------|
B|------------------------------------|
G|--9999-------55555-------22222/44~--|
D|--9999-55555-55555-55555-22222/44~--|
A|--7777-55555-33333-55555-00000/22~--|
E|-------33333-------33333------------|
I miss you more than I could know, here I am, here I am, won't you get me?

Chorus 1 (00:36):
     E    E    A    B        E    E    A    C
e|-----------------------|-----------------------|
B|-----------------------|-----------------------|
G|--9999-9999-2222-4444--|--9999-9999-2222-5555--|
D|--9999-9999-2222-4444--|--9999-9999-2222-5555--|
A|--7777-7777-0000-2222--|--7777-7777-0000-3333--|
E|-----------------------|-----------------------|
I've got my hands at redemption's side / whose scars are bigger than these doubts of mine…
     C    A    B
e|--------------------|
B|--------------------|
G|--5555-2222-44444~--|
D|--5555-2222-44444~--|
A|--3333-0000-22222~--|
E|--------------------|
I'll fit all of these monstrosities inside…

Post-Chorus (00:52)
     E    G     C        E   G    C
e|------------------|------------------|
B|------------------|------------------|
G|--9999------5555--|--9999------5555--|
D|--9999-5555-5555--|--9999-5555-5555--|
A|--7777-5555-3333--|--7777-5555-3333--|
E|-------3333-------|-------3333-------|
And I'll come alive… come alive…

Verse 2 (01:02):
   E    G     C     G     B     C
e|--------------------------------------|
B|--------------------------------------|
G|--9999-------55555-------44444/55555--| In this part they don't
D|--9999-55555-55555-55555-44444/55555--| use guitar, but if you're
A|--7777-55555-33333-55555-22222/33333--| playing it acoustic, play it.
E|-------33333-------33333--------------|
With my fist down at your feet I was running out of mysteries…
       E    G     C     G     A     B
e|------------------------------------|
B|------------------------------------|
G|--9999-------55555-------22222/44~--|
D|--9999-55555-55555-55555-22222/44~--|
A|--7777-55555-33333-55555-00000/22~--|
E|-------33333-------33333------------|
Insecure and incomplete, here I am, here I am, won't you get me?

Chorus 2 (01:20):
     E    E    A    B        E    E    A    C
e|-----------------------|-----------------------|
B|-----------------------|-----------------------|
G|--9999-9999-2222-4444--|--9999-9999-2222-5555--|
D|--9999-9999-2222-4444--|--9999-9999-2222-5555--|
A|--7777-7777-0000-2222--|--7777-7777-0000-3333--|
E|-----------------------|-----------------------|
I've got my hands at redemption's side / whose scars are bigger than these doubts of mine…
     C    A    B
e|--------------------|
B|--------------------|
G|--5555-2222-44444~--|
D|--5555-2222-44444~--|
A|--3333-0000-22222~--|
E|--------------------|
I'll fit all of these monstrosities inside…

Post-Chorus (01:37):
     E    G     C        E   G    C
e|------------------|------------------|
B|------------------|------------------|
G|--9999------5555--|--9999------5555--|
D|--9999-5555-5555--|--9999-5555-5555--|
A|--7777-5555-3333--|--7777-5555-3333--|
E|-------3333-------|-------3333-------|
And I'll come alive… come alive…
     E    G     C        E   G    C
e|------------------|------------------|
B|------------------|------------------|
G|--9999------5555--|--9999------5555--|
D|--9999-5555-5555--|--9999-5555-5555--|
A|--7777-5555-3333--|--7777-5555-3333--|
E|-------3333-------|-------3333-------|
Alive… come alive…

Bridge (01:55):
      E
E|------------------|
B|------------------|
G|--999--99--9-9-9--| x8
D|--999--99--9-9-9--|
A|--777--77--7-7-7--|
E|------------------|
My fears have worn me out, my fears have worn me out
Yeah, my fears have worn me out, my fears have worn me, worn me… out!

Chorus 3 (02:15):
     E    E    A    B        E    E    A    C
e|-----------------------|-----------------------|
B|-----------------------|-----------------------|
G|--9999-9999-2222-4444--|--9999-9999-2222-5555--|
D|--9999-9999-2222-4444--|--9999-9999-2222-5555--|
A|--7777-7777-0000-2222--|--7777-7777-0000-3333--|
E|-----------------------|-----------------------|
I've got my hands at redemption's side / whose scars are bigger than these doubts of mine…
     C    A    B
e|--------------------|
B|--------------------|
G|--5555-2222-44444~--|
D|--5555-2222-44444~--|
A|--3333-0000-22222~--|
E|--------------------|
I'll fit all of these monstrosities inside… and I'll come alive

Chorus 4 (02:32):
     E    E    A    B        E    E    A    C
e|-----------------------|-----------------------|
B|-----------------------|-----------------------|
G|--9999-9999-2222-4444--|--9999-9999-2222-5555--|
D|--9999-9999-2222-4444--|--9999-9999-2222-5555--|
A|--7777-7777-0000-2222--|--7777-7777-0000-3333--|
E|-----------------------|-----------------------|
[I've got my hands] at redemption's side… [Whose scars] bigger than… these doubts of mine
     C    A    B
e|--------------------|
B|--------------------|
G|--5555-2222-44444~--|
D|--5555-2222-44444~--|
A|--3333-0000-22222~--|
E|--------------------|
I'll fit all of these monstrosities inside…

Post-Chorus (02:48):
     E    E    G    C        E    E    G    C        E (2:58)
e|-----------------------|-----------------------|------|
B|-----------------------|-----------------------|------|
G|--9999-9999------5555--|--9999-9999------5555--|--9~--| End
D|--9999-9999-5555-5555--|--9999-9999-5555-5555--|--9~--|
A|--7777-7777-5555-3333--|--7777-7777-5555-3333--|--7~--|
E|------------3333-------|------------3333-------|------|
And come alive… come alive…

h= hammer on
/= slide

That's it, I love this song, but couldn't find a tab 100% accurate, so I made my own.
You might that listen in the chorus should be another chord, I think the bass does it, 
if u know a better way to play it feel free to comment.
Any comment or question mail me: 'j053montenegro@yahoo.es' (it's a zero in j053)
or 'free_at_last777@hotmail.com'. I hope you enjoy it …and you should 'look at the stars 
4 a.m. anticipating… the night is nearly over, the day is almost here…' at least that's 
Jon says, but remember that redemption is part of your salvation.

GOD bl3s5 U.
j:053[d:]montNgro, your Latino brother.

            
            
Suggest correction
Creating personal tab
Creating personal tab
You can edit any tab online and save it as your Personal.

You can edit, replace or remove any tab part or add personal notes – all changes will be seen only by you.

Personal tabs can be accessed anytime from any device, even offline.
Learn more »
comments
print report bad tab
1 comment total.
0 reply
supermargio 10 Feb 06, 2013 08:03 AM

thanks so much for posting this, you did a great job!

guest
Wanna post a correction for this tab? Suggest correction