Oops, an error
Loading. Please wait.

Restless Tab

version 1
version 1

Whole song

1,345 views 9 this week
1 commentread comment
1 2 3 4 5
please rate
add to favorites
launch autoscroll
font size
0
reset
how to read this tab
guitar tuner
Autoscroll
slow
fast
+/-
esc
set tempo
stop
Help us to improve Ultimate-Guitar.com Take our survey!
×
Author
Difficulty
intermediate
Restless (E. Guit.) - Switchfoot
Tabbed By Justin Chung
Standard Tuning - Key of B

The main electric guitar parts, everything else is based on the intro/verse fills

Intro/Verse: (Same notes in verse, just different order/places)
E|------------|------------|------7-----|-----------|-----------|
B|--------5-4-|--------4-5-|--------5-4-|------4--5-|------5--4-|
G|------4-----|-4----------|------------|-----------|-----------|
D|------------|------------|------------|-----------|-----------|
A|------------|------------|------------|-----------|-----------|
E|------------|------------|------------|-----------|-----------|

E|------------|------7-----|------------|-----------|-----------|
B|--------4-5-|--------5-4-|--------4s2-|-0----5--4-|-----------|
G|------------|------------|------------|-----------|-----------|
D|------------|------------|------------|-----------|-----------|
A|------------|------------|------------|-----------|-----------|
E|------------|------------|------------|-----------|-----------|

Chorus
        I  Am… 
E|------7-----|------------|------------|-------------|-----------|
B|--------5-4-|------7-----|------7-----|------7------|--7-5-4----|
G|------------|----4-------|----4-------|----4--------|-----------|
D|------------|------------|------------|-------------|--------6--|
A|------------|------------|------------|-------------|-----------|
E|------------|------------|------------|-------------|-----------|

                                         (Don’t play on Second Chorus)
E|------------|------------|------------|-7--7--------|
B|------7-----|------7-----|----7----7--|-------5-4---|
G|----4-------|----4-------|--4----4----|-----------4-|
D|------------|------------|------------|-------------|
A|------------|------------|------------|-------------|
E|------------|------------|------------|-------------|

Solo
E|-------------------------|-------------------------|
B|-12-------12-------12----|-------------------------|
G|----------------------14-|-14-14-14-14-14-13-13-11-|
D|----13-13----13-13-------|-------------------------|
A|-------------------------|-------------------------|
E|-------------------------|-------------------------|

E|-------------------------------|-------------------------|
B|-12-------12-------12s14s12-12-|----------------12s14s12-|
G|-------------------------------|-14-14-14-14-14----------|
D|----13-13----13-13-------------|-------------------------|
A|-------------------------------|-------------------------|
E|-------------------------------|-------------------------|

E|-------------------------|-------------------------|
B|-12-------12-------12----|-------------------------|
G|----------------------14-|-14-14-14-14-14-13-13-11-|
D|----13-13----13-13-------|-------------------------|
A|-------------------------|-------------------------|
E|-------------------------|-------------------------|

E|-------------------------|-------------------------|
B|-12-------12-------12-12-|-12-12-12-12-14-14-14-14-|
G|----------------------x--|-x--x--x--x--x--x--x--x--|
D|----13-13----13-13----9--|-9--9--9--9--11-11-11-11-|
A|-------------------------|-------------------------|
E|-------------------------|-------------------------|

Final Chorus:
E|-------------------------|-------------------------|
B|-16-16-16-16-16-16-16-16-|-17-17-17-17-17-17-17-17-|
G|-x--x--x--x--x--x--x--x--|-x--x--x--x--x--x--x--x--|
D|-13-13-13-13-13-13-13-13-|-14-14-14-14-14-14-14-14-|
A|-------------------------|-------------------------|
E|-------------------------|-------------------------|

E|-------------------------|-------------------------|
B|-16-16-16-16-16-16-16-16-|-17-17-17s19s17-17-17-17-|
G|-x--x--x--x--x--x--x--x--|-x--x--x--x--x--x--x--x--|
D|-13-13-13-13-13-13-13-13-|-14-14-14s16s14-14-14-14-|
A|-------------------------|-------------------------|
E|-------------------------|-------------------------|

E|-------------------------|-------------------------|
B|-16-16-16-16-16-16-16-16-|-17-17-17-17-17-17-17-17-|
G|-x--x--x--x--x--x--x--x--|-x--x--x--x--x--x--x--x--|
D|-13-13-13-13-13-13-13-13-|-14-14-14-14-14-14-14-14-|
A|-------------------------|-------------------------|
E|-------------------------|-------------------------|

E|-------------------------|-------------------------|
B|-16-16-16-16-16-16-16-16-|-17-17-17-17-17-17-17-17-|
G|-x--x--x--x--x--x--x--x--|-x--x--x--x--x--x--x--x--|
D|-13-13-13-13-13-13-13-13-|-14-14-14-14-14-14-14-14-|
A|-------------------------|-------------------------|
E|-------------------------|-------------------------|

Outro
E|-------------------------|-------------------------|
B|-12-------12-------12----|-------------------------|
G|-------------------------|-14-14-14-14-14-13-13-11-|
D|----13-13----13-13-------|-------------------------|
A|-------------------------|-------------------------|
E|-------------------------|-------------------------|

E|-------------------------------|-------------------------|---------|
B|-12-------12-------12s14s12-12-|-12-12-12-12-12-12s14s12-|-12------|
G|-------------------------------|-------------------------|---------|
D|----13-13----13-13-------------|-------------------------|---------|
A|-------------------------------|-------------------------|---------|
E|-------------------------------|-------------------------|---------|

Suggest correction
Give kudos to tab author, rate the tab!
1 2 3 4 5
comments
print report bad tab
1 comment total.
0 reply
CaptainAwesomex 10 wrote on June 6 2014, 11:53 am

The Intro/verse, Solo, and the Outro are spot on. I would play the chords for the chorus though.

guest
You may want to rate the tab now too:
select rating
Wanna post a correction for this tab? Suggest correction