Oops, an error
Loading. Please wait.

Setting Sun bass

version 1
version 1

Whole song

Interactive

882 views 1 this week
1 commentread comment
1 2 3 4 5
x 3
add to favorites
×
Save as Personal and add changes to this tab that will be seen only by you. Learn more ›
×
You can save this tab as Personal to edit and correct it or add notes. All changes will be seen only by you. Learn more »
launch autoscroll
font size
0
reset
guitar tuner
edit
Autoscroll
slow
fast
+/-
esc
set tempo
stop
The Setting Sun - Switchfoot

Tabbed by: Drew Fish
E-mail: microfish89@yahoo.com

Tuning: Drop E to D

*Some of the titles are not correctly placed for some reason when they are on here BUT 
you copy and paste the tab into a word processing ducument, everything will line up correctly.*

Intro In @ 0:10
G|---------------------------------|
D|---------------------------------|
A|--0-0-024------------------------|
D|----------2-22-2224-5-5-55-5-55--|(x3)

Ending 1		Ending 2		Ending 3
G|-----------|	G|--------|		G|--------|
D|----454----|	D|--------|		D|----57--|
A|--5-----5--|	A|----57--|		A|---5----|
D|-----------|	D|--55----|		D|--5-----|

Verse 1
G|---------------------------------------------------------------------------|
D|---------------------------------------------------------------------------|
A|--5-5-555----------02-2-22-2-22--2202--------------------0-0-00-0-00-0000--|
D|----------5-55-555---------------------2-2-22-2-22-2222--------------------|

G|------------------------4-6-7------------------------------7-6-------------|
D|-----------------------4---------------------------------------------------|
A|--5-5-555----------02-2---------2202------------------0-0-0-----00-0000----|
D|----------5-55-555-------------------2-2-22-2-22-2222----------------------|

Pre-Chorus
G|--------------------------------------|
D|--------------------------------------|
A|----------------------------------57--|
D|--3-3-33-3-33-3333-5-5-55-5-55--05----|

Chorus
G|---------------------------------------|
D|---------------------------------------|
A|--0-0-000-----------2-2-222------------|
D|----------2-22-2222---------0-00-0002--|(x2)

							Ending 1		Ending 2
G|---------------------------------|    G|-----------|    G|--------------|
D|---------------------------------|    D|----454----|    D|----57--------|
A|--0-0-024------------------------|    A|--5-----5--|    A|---5----------|
D|----------2-22-2224-5-5-55-5-55--|(x2)    D|-----------|    D|--5-------|

Verse 2
G|---------------------------------------------------------------------------|
D|---------------------------------------------------------------------------|
A|--5-5-555----------02-2-22-2-22--2202--------------------0-0-00-0-00-0000--|
D|----------5-55-555---------------------2-2-22-2-22-2222--------------------|

G|------------------------4-6-7------------------------------7-6-------------|
D|-----------------------4---------------------------------------------------|
A|--5-5-555----------02-2---------2202------------------0-0-0-----00-0000----|
D|----------5-55-555-------------------2-2-22-2-22-2222----------------------|

Pre-Chorus
G|--------------------------------------|
D|--------------------------------------|
A|----------------------------------57--|
D|--3-3-33-3-33-3333-5-5-55-5-55--05----|

Chorus
G|---------------------------------------|
D|---------------------------------------|
A|--0-0-000-----------2-2-222------------|
D|----------2-22-2222---------0-00-0002--|(x2)

							Ending 1		Ending 2
G|---------------------------------|    G|-----------|    G|--------------|
D|---------------------------------|    D|----454----|    D|----57--------|
A|--0-0-024------------------------|    A|--5-----5--|    A|---5----------|
D|----------2-22-2224-5-5-55-5-55--|(x2)    D|-----------|    D|--5-------|

Bridge
G|----------------------------------------------|
D|---------------------------------12-----------|
A|--5-5-579--------------------------12-10------|
D|----------7-77-7779-10-10-101010---------797--|

G|----------------------------------------------------------------------|
D|----------------------------------------------------------------------|
A|--8(x16)/12(x16)8(x16)12(x16)8(x16)5(x16)/7(x16)/12--7--5(x16)--------|
D|----------------------------------------------------------------------|

Outro
G|---------------------------------------|
D|---------------------------------------|
A|--0-0-000-----------2-2-222------------|
D|----------2-22-2222---------0-00-0002--|(x2)

G|------------------------------------------------------------------|
D|------------------------------------750---------------------------|
A|--0-0-024-------------------------------0-0-024-------------------|
D|----------2-22-2224-5-5-55-5-55--505------------2-22-22245(fade)--|

Order
Intro (in @ 0:10) + Ending 1, Ending 2, Ending 3
Verse 1
Pre-Chorus
Chorus + Ending 1, Ending 2
Verse 2
Pre-Chorus
Chorus + Ending 1, Ending 2
Bridge
Outro

Note: When repeating, before you repeat use the Endings in order, then repeat.

            
            
Suggest correction
Creating personal tab
Creating personal tab
You can edit any tab online and save it as your Personal.

You can edit, replace or remove any tab part or add personal notes – all changes will be seen only by you.

Personal tabs can be accessed anytime from any device, even offline.
Learn more »
Give kudos to tab author, rate the tab!
1 2 3 4 5
comments
print report bad tab
1 comment total.
0 reply
TFKfan75 199 Jul 26, 2013 11:53 AM

Awesome tab! Great song too! :)

guest
You may want to rate the tab now too:
select rating
Wanna post a correction for this tab? Suggest correction