Oops, an error
Loading. Please wait.

Spirit tab

1,031 views 3 this week
1 commentread comment
1 2 3 4 5
x 3
add to favorites
×
Save as Personal and add changes to this tab that will be seen only by you. Learn more ›
×
You can save this tab as Personal to edit and correct it or add notes. All changes will be seen only by you. Learn more »
launch autoscroll
font size
0
reset
how to read this tab
guitar tuner
edit
Autoscroll
slow
fast
+/-
esc
set tempo
stop
Author
Difficulty
ong: Spirit
Band: Switchfoot
Album:Nothing is Sound
Tabbed By: AvngdSvnfold
Standard Tuning


GUITAR 1: CLEAN
GUITAR 2: SLIGHT DISTORTION



INTRO (Fingerstyle)

Guitar 1
e|---------------------3-----------------------------------------|
B|-------0-------0--------0--------------------------------------|
G|-----2-----2-------2--------2----------------------------------|
D|-------------0-----------------(x2)----------------------------|
A|---------------------------------------------------------------|
E|--3------------------------------------------------------------|

VERSE (Fingerstyle)
Spirit fall fresh on me...

Guitar 1
e|-----------------------3------------------------3--------------|
B|-----------0-----0--------0------------------0-----------------|
G|-----2--------------2--------2h4----------0--------------------|
D|--------0-----0------------------------0-----------0-----------|
A|----------------------------------2h3--------------------------|
E|--3------------------------------------------------------------|

e|-------------------------------------------3-------------------|
B|----------------------------0--------0--------0----------------|
G|-----0-------------0-----2-----2--------2--------2h4---------0-|
D|--------0-------7-----------------0-----------------------0----|
A|--3--------3s5---------------------------------------2s3-------|
E|----------------------3----------------------------------------|

e|-----3-------------------------------------------0--1----------|
B|--0----------------------------------------0-----3-----3-------|
G|-----------------0-------------0--0--2--------2-----------2----|
D|--------0-----5-----0-------7-----------0--------0-----------3-|
A|-----------3-----------2h5-------------------------------------|
E|----------------------------------3----------------------------|

e|-----------3--------------------3----------3-------------0-----|
B|-------------------------------------------3--2--------3p0-----|
G|--------0--0--------------0-------------0--0--0-----0-------0--|
D|-----------------2-----0-----2-------0-----2--2--------------0-|
A|--0--0--------0-----3-----------3s5--------2-----3------------3|
E|-------------------------------------------0-------------------|

CHORUS
I've found all that I want...

Guitar 1

CHORUS RIFF:
e|--3-3----3-3----3-3-3-3--3-3---3-3-3-3-3-------3-------3-3-3---|
B|--3-3----3-3h---3-3-3-3--3-3---3-3-3-3-3---3---3-3-3-0-3-3-3-3-|
G|--0-0----0-0-2--2-2-2-0--0-0-0-0-0-0-0-2-2---2-2-2-2-0-0-0-0-0-|
D|--X-X------0----0-0-0-0--X-X-X-X-X-X-X-2-------2-------2-2-2-2-|
A|--3-3------0----0-0-0-0--3-3-3-3-3-3-3-0---------------2-2-2---|
E|-------------------------------------------------------0-0-0---|

e|------3-3---3-3------------------------------------------------|
B|--3-3-3-3---3-3---2--------------------------------------------|
G|--0-0-0-0-0-0-0---0------0---------0---------------------------|
D|--2-2-X---X-X-----2--------2-----7-----------------------------|
A|------3---3-3---0-0----3-----3s5-------------------------------|
E|---------------------------------------------------------------|

INTERLUDE (Fingerstyle)

Guitar 1
e|--3-----------3--3-----3--3--------------3-----3-----3-----3---|
B|--------0-----0--0-----0--0-----0--------0-----0-----0--0--0---|
G|--2--------2--0-----2--0--0--0-----0--2--0--0-----0--------0--2|
D|-----0---------------------------------------------------------|
A|---------------------------------------------------------------|
E|---------------------------------------------------------------|

e|--3--3-----3---------------------------------------------------|
B|--0--0-----0-----0---------------------------------------------|
G|--------2-----0------------------------------------------------|
D|---------------------------------------------------------------|
A|---------------------------------------------------------------|
E|---------------------------------------------------------------|

VERSE 2 (Fingerstyle)
Spirit come be my joy...

Guitar 1
e|-----------3--------------3-----3-----3--3--3-----------------3|
B|-----0--0--0--0--3--3--3--3--3-----3--3--3--3--3--3--3--3--3--3|
G|-----------0--0--2--2--2--2--2--------0--0--0--0--0--0--0--0--0|
D|--0--------0--------0--0--0-----------X--------X--X--X--X--X--X|
A|--X-----------------------------------3--------3--3--3--3--3--3|
E|--3------------------------------------------------------------|

e|--3--3--3--3--3--3--3--3--3--3--3--3--------------3----------3-|
B|--3--3--3--3--3--3--3--3--3--3--3--3--3-----3-----3----3--3--3-|
G|--------2--2--0--0--0--0--0--0--0--0-----0--0--0--2p0--0--0--0-|
D|--------------------0--0--0--0--0-----------------0----------X-|
A|--------------------X--X--X--X--X----------------------------3-|
E|--------------------3--3--3--3--3------------------------------|

e|-----------3--------------------------------------------1------|
B|--3--3--3--3--0--3--3--3-----3-----3--3--3--3-----3--3--3--3--3|
G|--0--0--0--0-----0--0-----2-----0-----0--0--0--0--------2--2---|
D|-----X-----X--------X-----------------0--0--0--0--------0------|
A|-----3-----3--------3-----------------X-----------------0------|
E|--------------------------------------3------------------------|

e|--------------------------------3--3---------------------------|
B|-----3--3--3--3-----3--3--3--3--3--3--------0--0--0h1--3--2----|
G|--0--0--0--0--0--0--0--0--0--0--0-----0--0--0--0--0----0--0----|
D|-----X--X--X--X-----2--0--0--0--X-----5--4--0----------2--2----|
A|-----3--3--3--3-----------------3----------------------2--0----|
E|-------------------------------------------------------0-------|

e|---------------------------------------------------------------|
B|--------3p0----------------------------------------------------|
G|-----0-------0-------------------------------------------------|
D|----------------0----------------------------------------------|
A|--3----------------3-------------------------------------------|
E|---------------------------------------------------------------|

Guitar 2
e|-------------------------------5-------------------------------|
B|-------------1--0--------3-------------------------------------|
G|-------------------0-----------------------2--0----------------|
D|----------------------------------5--(5)s----------------------|
A|----------3-----------3-----2--------------------3--2----------|
E|--3--(3)-------------------------------------------------------|


CHORUS 2
...all that I want...

Guitar 1: CHORUS RIFF

Guitar 2
e|----------2-2-2-X-2-2-2-2--------------------------------------|
B|--3-3-X-3-3-3-3-X-3-3-3-3-10-8-8-7-7-7-7-7-7-7-7s3-3-3-3-3-3-X-|
G|--2-2-X-2-0-0-0-X-0-0-0-0--0-0-0-0-0-0-0-0-0-0-0s0-0-0-2-2-2-X-|
D|--0-0-X-0-2-2-2-X-2-2-2-2--0-0-0-0-0-0-0-0-0-0-0s4-4-4-0-0-0-X-|
A|--X-X-X-X-2-2-2-X-2-2-2-2--X-X-X-X-X-X-X-X-X-X-Xs5-5-5-X-X-X-X-|
E|--3-3-X-3-0-0-0-X-0-0-0-0--8-8-8-8-8-8-8-8-8-8-8s------3-3-3-X-|

e|--------2-2-2-X-2-2-2-2--------------------------------3---3-3-|
B|--3-3-3-3-3-3-X-3-3-3-3-10-8-8-7-7-7-7-7-7-7-7s3-3-3-3-3-3---3-|
G|--2-2-2-0-0-0-X-0-0-0-0--0-0-0-0-0-0-0-0-0-0-0s0-0-0-0-0-----0-|
D|--0-0-0-2-2-2-X-2-2-2-2--0-0-0-0-0-0-0-0-0-0-0s4-4-4-4---------|
A|--X-X-X-2-2-2-X-2-2-2-2--X-X-X-X-X-X-X-X-X-X-Xs5-5-5-5---------|
E|--3-3-3-0-0-0-X-0-0-0-0--8-8-8-8-8-8-8-8-8-8-8-----------------|

e|-------2---2---3---3---3---3---3-------------------------------|
B|--------3---3---3---3---3---1---1-0----------------------------|
G|--3------2---0---0---0---0---0----0----------------------------|
D|----0-------------------------------2s5------------------------|
A|---------------------------------------------------------------|
E|---------------------------------------------------------------|

INTERLUDE

Guitar 1 (FIngerstyle)
e|---------------------------------------------------------------|
B|-----8--8--8--6---------6--------9-----8--8--8--6s8--9---------|
G|--------------------8------7--------7----------------10--5--5--|
D|------------------------------6--------8--8-----6s8--10--5--5--|
A|--6--------------6---------------------------6-----------7--7--|
E|--------------4------------6-----------------------------------|

e|---------------------------------------------------------------|
B|---------------------------------------------------------------|
G|--5--7--7--7--7------------------------------------------------|
D|--5--7--7--7--7------------------------------------------------|
A|--7--9--9--9--9------------------------------------------------|
E|---------------------------------------------------------------|

Guitar 2
e|---------------------------------------------------------------|
B|--8--6--8s4--4s6--(6)s9--8--6s8--9--5-8--5--7--8--10-----------|
G|---------------------------------------------------------------|
D|---------------------------------------------------------------|
A|---------------------------------------------------------------|
E|---------------------------------------------------------------|

CHORUS 3
..all that I want...

Guitar 1: CHORUS RIFF

GUITAR 2
e|--5----5----7----7----3----3----3---3----5----5----7----5------|
B|---3----3----3----3----3----3----3---3----3----3----3----3-----|
G|----0----0----0----0----0----0----0---0----0----0----0----0----|
D|---------------------------------------------------------------|
A|---------------------------------------------------------------|
E|---------------------------------------------------------------|

e|--3----3----2----3----3----3----3----3-------------------------|
B|---3----3----2----2----3----3----1----1------------------------|
G|----0----0----2----0----0----0----0----0-----------------------|
D|---------------------------------------------------------------|
A|---------------------------------------------------------------|
E|---------------------------------------------------------------|

GUITAR 1: CHORUS RIFF

Guitar 2
e|----------------------------3---3---5-----3----7----7----5-----|
B|-----------------------------3---3---------3----3----3---------|
G|--------0-------------0-------0---0--0-0----0----0----0---0-0--|
D|--2--------2-------4-----4-------------------------------------|
A|-----3--------3s5----------------------------------------------|
E|---------------------------------------------------------------|

e|--3---3----5--------------7-7h8-----------7-7-7^7.5-5-5-5-3---3|
B|---3---3----3-------------------------3------------------------|
G|----0---0----0-0-0-0-0-0--------0-0-0---0-------------------0--|
D|---------------------------------------------------------------|
A|---------------------------------------------------------------|
E|---------------------------------------------------------------|

e|--3-3---3-3-------7-7-7-7-7---------5-5-5-5-5-5-X-7-7-7^7.5----|
B|----------------------------------3-------------------------3-3|
G|------0-----0-0-0-----------0-0-0------------------------------|
D|---------------------------------------------------------------|
A|---------------------------------------------------------------|
E|---------------------------------------------------------------|

e|--3-3-3-3---3--------------------------------------------------|
B|------3-3---3--------------------------------------------------|
G|------------0--------------------------------------------------|
D|------------0--------------------------------------------------|
A|------------X--------------------------------------------------|
E|------------3--------------------------------------------------|

That's all! Please rate!

Tab #2 by

AvngdSvnfold ;)

LEGEND:

h: hammer on
p: pull off
s: slide
^: string bend
(): ghost note

            
            
Suggest correction
Creating personal tab
Creating personal tab
You can edit any tab online and save it as your Personal.

You can edit, replace or remove any tab part or add personal notes – all changes will be seen only by you.

Personal tabs can be accessed anytime from any device, even offline.
Learn more »
Give kudos to tab author, rate the tab!
1 2 3 4 5
comments
print report bad tab
1 comment total.
0 reply
ice_wiz 21 Jan 30, 2007 12:34 PM

Out of the book again, you're anything but sly.

guest
You may want to rate the tab now too:
select rating
Wanna post a correction for this tab? Suggest correction