Oops, an error
Loading. Please wait.

Stars Acoustic tab

version 6
version 6
1,306 views 12 this week
no commentswrite comment
1 2 3 4 5
1 last vote to show rating
add to favorites
×
Save as Personal and add changes to this tab that will be seen only by you. Learn more ›
×
You can save this tab as Personal to edit and correct it or add notes. All changes will be seen only by you. Learn more »
launch autoscroll
font size
0
reset
how to read this tab
guitar tuner
edit
Autoscroll
slow
fast
+/-
esc
set tempo
stop
Author
-------------------------------------------------------------------------------
                             Stars Acoustic - Switchfoot
-------------------------------------------------------------------------------
Tabbed by: SOVASO
Album: Nothing is Sound

Tuning: Standard
if you want to play the electric version, take out the intro and tune to drop D
Intro
e|--2----0---------------------2---0---------------2-----0-------------------|
B|--3---------3----------------3--------3----------3---------2---------------|
G|--2----------------2---------2------------0------2--------------2-2-2-2-2--|
D|---------------------------------------------------------------------------|
A|---------------------------------------------------------------------------|
E|---------------------------------------------------------------------------|

e|------------------------------2--0-----------------2---0-------------2-----|
B|------------2--3~~------------3------3-------------3-------3---------3-----|
G|------------------------------2-----------2--------2------------0----2-----|
D|---------------------------------------------------------------------------|
A|--0-2-0--------------------------------------------------------------------|
E|--0-2-0--------------------------------------------------------------------|

e|---0-----------------2---0-------------------------------------------------|
B|--------3------------3-------3-----------------------------2-3~~-----------|
G|-------------0-------2------------2--2-2-2-2-2-----------------------------|
D|---------------------------------------------------------------------------|
A|---------------------------------------------------0-2-0-------------------|
E|---------------------------------------------------0-2-0-------------------|
Main Riff A
e|--x--x--x-x----------------------------------------------------------------|
B|--x--x--x-x--------------------------------------------12------------------|
G|--x--x--x-x-----------6-7------11---------9-------13---x----14-------------|
D|--x--x--x-x-----------x-x------x----------x-------x----10---x--------------|
A|--x--x--x-x---0-2-0---4-5------9----------7-------11--------12-------------|
E|--x--x--x-x---0-2-0--------0-0-----0-0-0-----0-0-----------------0--0------|

e|---------------------------------------------------------------------------|
B|---------------------------------------------------------------------------|
G|--6--7-------11--------9---9-9-9-------------------------------------------|
D|--x--x-------x---------x---x-x-x-------------------------------------------|  x2
A|--4--5-------9---------7---7-7-7-------------------------------------------|
E|--------0-0-------0-0------------------------------------------------------|
main riff B
e|-----------------------------------------|
B|-----------------------------------------|
G|-----------------------------------------|
D|-----------6-7------11-----7--7-7-7------| x2
A|---0-2-0---4-5------9------5--5-5-5------|
E|---0-2-0-------0-0-----0-0---------------|

the Verse is chords so:

Verse
D
Maybe I've been the problem
      G              D     
Maybe I'm the one to blame 
                C               G        
But even when I turn it off and blame myself
     D              
The outcome feels the same 
                       D  
I've been thinking maybe I've been partly cloudy
      G                 D  
Maybe I'm the chance of rain
              C 
And maybe I'm overcast
    G              D                            
And maybe all my luck's washed down the drain 

Pre chorus: 
                        A     
I've been thinking 'bout everyone,
B              C            D
Everyone you look so lonely

Chorus:
                       D
But when I look at the stars
                      G
When I look at the stars
                   C   G            
When I look at the stars, I see someone else 

(play main riff B x2) 
                   Em    A7 
When I look at the stars 

The stars, I feel like myself 
(main riff B x2)


If you want you can play this during the chorus twice
e|------------------------|
B|------------------------|
G|---11---9--7------2-----|
D|---x----x--x------0-----|
A|---9----7--5------0-----|
E|------------------------|

Repeat the verse pattern during lyrics:


I've been thinking 'bout the meaning of resistance 
Of a hope beyond my own 
And suddenly the infinite and penitent 
Begin to look like home 

(Repeat pre chorus)

I've been thinking about everyone 
Everyone you look so empty

(Repeat chorus) 

But when I look at the stars 
When I look at the stars 
When I look at the stars, I see someone else 
When I look at the stars 
The stars, I feel like myself. 
Yeah! 

(pre chorus)

Everyone, everyone feels so lonely 
Everyone, yeah everyone feels so empty 

(chorus)

When I look at the stars 
When I look at the stars 
When I look at the stars, I feel like myself 
When I look at the stars 
The stars, I see someone...
 Oh!

for the outro play main riff B twice

************************************

| /   slide up
| \   slide down
| h   hammer-on
| p   pull-off
| ~   vibrato
| +   harmonic
| x   Mute note
| b   Bend
| pb  Pre-bend
| br  Bend release
| pbr Pre-bend release
| brb Bend release bend

************************************
Suggest correction
Creating personal tab
Creating personal tab
You can edit any tab online and save it as your Personal.

You can edit, replace or remove any tab part or add personal notes – all changes will be seen only by you.

Personal tabs can be accessed anytime from any device, even offline.
Learn more »
Give kudos to tab author, rate the tab!
1 2 3 4 5
comments
print report bad tab
guest
You may want to rate the tab now too:
select rating
Wanna post a correction for this tab? Suggest correction