Oops, an error
Loading. Please wait.

This Is Your Life Bass Tab

version 1
version 1

Whole song

Interactive

4,038 views 6 this week
7 commentsread comments
1 2 3 4 5
x 7
add to favorites
launch autoscroll
font size
0
reset
guitar tuner
Autoscroll
slow
fast
+/-
esc
set tempo
stop
Help us to improve Ultimate-Guitar.com Take our survey!
×
This is your life


Intro/Verse/Outro
G|-----------9----------9--------13--------------------------------|
D|--11---11-----11---11---11--11---11------------------------------|
A|---------------------------12------------------------------------|
E|-----9-----------9-----------------------------------------------|

G|-----------9----------9--------13--------------------------------|
D|--11---11-----11---11---11--11---11------------------------------|
A|---------------------------12------------------------------------|
E|-----9-----------9-----------------------------------------------|

HEY JUST KIDDING GUYS I MISLABLED THIS IT'S SUPPOSED TO BE THE CHORUS!
I don't know maybe I was high or something?

CHORUS
G----------------------|
D----------------------|
A--0h2------------0h2--|
E-0--0-2-0-0-2-0--0----| x2

Fun and simple
Suggest correction
comments
print report bad tab
7 comments total. Showing first comments.
0 reply
chickenlicken 10 Jan 24, 2005 12:00 AM

Very good tab, I hope this is their next single

0 reply
sheckyfan 10 Feb 02, 2005 12:00 AM

thanks for the good tab, but i think there is one mistake..i think it should be like:

G|-----------9----------9--------13------------------------------|
D|--11---11-----11---11---11--11----9----------------------------|
A|---------------------------12----------------------------------|
E|-----9-----------9---------------------------------------------|

great job otherwise!

0 reply
Uncommonresults 480 Mar 11, 2005 12:00 AM

oh yeah sorry that was how it was supposed to be i just forget

guest
You may want to rate the tab now too:
select rating
Wanna post a correction for this tab? Suggest correction