Oops, an error
Loading. Please wait.

This Is Your Life Tab

version 1
version 1

Whole song

Interactive

7,028 views 6 this week
3 commentsread comments
1 2 3 4 5
worth learning
x 4
add to favorites
launch autoscroll
font size
0
reset
how to read this tab
guitar tuner
Tab Pro tools
  • play this tab
  • loop segment
  • change instrument
  • show fretboard
  • metronome
×
Best way to learn
"This Is Your Life"
Autoscroll
slow
fast
+/-
esc
set tempo
stop
Contributor
Difficulty
intermediate
Band: Switchfoot
Album: The Beautiful Letdown
Email: Arbiter1023@sbcglobal.net
Tuning: Standard
There were no tabs for this song.I think.
So i would tab it out then.

Intro/verse: Repeat.

E|------------------------------|
B|------------------------------|
G|------------------------------|
D|-------------------------6----|
A|-7—--4-7-4—--4-7—--4—--4—--7--|
E|—--4-------4---------5--------|

Chorus: Strum chords.

E|----------------------------------------------|
B|----------------------------------------------|
G|-9-----------9------------9-------------------|
D|-9------7----9-----7------9--------6--------7-|
A|-7—-----7----7-----7------7--------6--------7-|
E|—-------5----------5---------------4--------5-|
 .life....be..life...be...dream....younger..lose.


Small Solo: Repeat.

E|—--4-----5-4---|
B|—2-----2-—---5-|
G|-----4---------|
D|---------------|
A|---------------|
E|—--------------|
comments
print report bad tab
3 comments total.
0 reply
ncroxalot4 wrote on January 21 2008, 03:37 pm

i have one little change on the last note of the intro/verse. i just think it sounds better this way. everything else
is perfect. great tab.

 

E|------------------------------|
B|------------------------------|
G|------------------------------|
D|-------------------------6----|
A|-7—--4-7-4—--4-7—--4—--4—-----|
E|—--4-------4---------5-----7--|

right here^


0 reply
Trit wrote on August 17 2008, 07:59 pm

Uhh, I'm a little confused, because this sounds a very small bit like the song, but the tab is way off, and I didn't think it was all that complicated of a song to listen to and figure out for the verses!

0 reply
wymankid wrote on May 6 2016, 06:47 pm, edited at 06:48 pm

kk its very good but the solo needs to start with an open B.

I want to post or [tab]
guest
You may want to rate the tab now too:
select rating
Please do not post tabs as comments. Select "correction" instead!