Oops, an error
Loading. Please wait.

This Is Your Life Bass

version 2
version 2

Whole song

Interactive

14,401 views 15 this week
4 commentsread comments
1 2 3 4 5
x 12
add to favorites
launch autoscroll
font size
0
reset
guitar tuner
×
Best way to learn
"This Is Your Life"
Autoscroll
slow
fast
+/-
esc
set tempo
stop
h=hammer
/=slide up
\=slide down


INTRO  	4x	(distortion effect on bass)
G||||-------9--------9-|----------13----||||
D||||-11-11---11--11---|-11----11-------||||
A||||------------------|----12-------14-||||
E||||---9-------9------|----------------||||

VERSE 1		2x
G||-------9--------9-|----------13----||--rest some---|
D||-11-11---11--11---|-11----11-------||--------------|
A||------------------|----12-------14-||--------------|
E||---9-------9------|----------------||--------------|

		2x
G||-------9--------9-|----------13----||--rest some---|
D||-11-11---11--11---|-11----11-------||--------------|
A||------------------|----12-------14-||--------------|
E||---9-------9------|----------------||--------------|

CHORUS 1 2x
G||-----|------|------|-----|------|--------|-----|------|------|-----|------|
D||-----|------|------|-----|------|--------|-----|------|------|-----|------|
A||-----|-2----|-0----|-----|-2----|-0---0h2|-----|-2----|-0----|-----|-2----|
E||-0---|------|------|-0---|------|--------|-0---|------|------|-0---|------|

INTRO TO VERSE 2
G||-------9--------9-|----------13----||
D||-11-11---11--11---|-11----11-------||
A||------------------|----12-------14-||
E||---9-------9------|----------------||

VERSE 2
G|-------9--------9-|----------13--------|-------9--------9--|----------13----|
D|-11-11---11--11---|-11----11-----------|-11-11---11--11----|-11----11-------|
A|------------------|----12-------14-----|-------------------|----12-------14-|
E|---9-------9------|--------------------|---9-------9-------|----------------|


This line is play at the same time as above. On the record it's an added
bass track mixed in. Listen carefully to the CD - you'll hear the tracks
overlap. Same distortion effect is used.
G|------------------|--------------------|-------------------|----------------|
D|------------------|--------------------|-------------------|----------------|
A|------------------|-----------------7h9|-----------------11|-12-------------|
E|------------------|--------------------|-9-----------------|----------------|


CHORUS 2  (not just plain whole notes anymore)  3x
G|||--------|----------------|-------14--------------|||
D|||--------|-/9-11-/14------|---/11---11\-----------|||
A|||--------|-----------14\--|-0------------0--12h14-|||
E|||-0------|----------------|-----------------------|||

G|-----|------|--BRIDGE - rest quite a bit-|
D|-----|------|--for vocals and strings----|
A|-----|-2----|----------------------------|
E|-0---|------|----------------------------|

BRIDGE  2x
G||--------|----------------|-------14-------------||
D||--------|-/9-11-/14------|---/11---11\----------||
A||--------|-----------14\--|-0------------0--0h2--||
E||-0------|----------------|----------------------||

CHORUS 3    	3x
G|||--------|----------------|-------14-------------|||
D|||--------|-/9-11-/14------|---/11---11\----------|||
A|||--------|-----------14\--|-0------------0---0h2-|||
E|||-0------|----------------|----------------------|||

G|-----|------|------|------|
D|-----|------|------|------|
A|-----|-2----|-0----|-2----|
E|-0---|------|------|------|

OUTRO  (keeps repeating in CD - fades out)
G|-------9--------9-|----------13----|
D|-11-11---11--11---|-11----11-------|
A|------------------|----12-------14-|
E|---9-------9------|----------------|
Suggest correction
comments
print report bad tab
4 comments total. Showing first comments.
-1 reply
Uncommonresults 480 Dec 24, 2004 07:00 PM

dude if you listen to it on the CD the bridge is almost right, and on the main riff the last note is wrong. you don't play 14 unless your playing by yourself. but if your playing with the cd or a band then you'll always get off if you play that.

-2 reply
RHCPk5 10 Mar 20, 2007 01:43 PM

Out of the 3 tabs on here this is def. THE closest to PERFECT, which I don't think is acheiveable. So good job on the tab but like Uncommonresults said the "14" after the main riff is wrong according to the cd. It is played like this ON THE CD...

Intro
G|-------9--------9-|----------13----|
D|-11-11---11--11---|-11----11----11-|
A|------------------|----12----------|
E|---9-------9------|----------------|

BUT

I like throwing in the "14" like this

Intro
G|-------9--------9-|----------13----|
D|-11-11---11--11---|-11----11----11-|
A|------------------|----12----------| x 3
E|---9-------9------|----------------|

Intro
G|-------9--------9-|----------13----|
D|-11-11---11--11---|-11----11-------|
A|------------------|----12-------14-|
E|---9-------9------|----------------|

Thanks again.

0 reply
BASSISTSRUL3 10 Oct 25, 2007 10:45 PM

Great tab, 5*s

guest
You may want to rate the tab now too:
select rating
Wanna post a correction for this tab? Suggest correction