Oops, an error
Loading. Please wait.

Underwater Tab

version 2
version 2

Whole song

846 views 1 this week
1 commentread comment
1 2 3 4 5
please rate
add to favorites
launch autoscroll
font size
0
reset
how to read this tab
guitar tuner
Autoscroll
slow
fast
+/-
esc
set tempo
stop
Help us to improve Ultimate-Guitar.com Take our survey!
×
Author
Difficulty
intermediate
    Artist:Switchfoot
    Album:The Legend of Chin
   This is 100% correct.
  Intro
e|------------------------------------------------------|
B|------------------------------------------------------|
G|---7-----7-----7-----7---7-----7-----7----------------|
D|---7-----7-----7-----7---7-----7-----7-7/8/9/10/11/---|
A|-5-----------5---------5-----------5---x/x/x/-x/-x/---|
E|-----5-7---5-----5-7-------5-7---5-----5/6/7/-8/-9/10-|

  Verse (2x)
e|------------------------------------------------------|
B|------------------------------------------------------|
G|-------7----4----6--7/---4----6----9----7/---3--4---6-|
D|-12\---7----3-x--5--7/-xx3----5----9----7/---3--3-xx5-|
A|-12\----------x-x------xx-------------------------xx--|
E|-10\7-7--5-3--x-5---7--x3---555\9999---7---22--3--x5--|

e|-------------------------------------|
B|-------------------------------------|
G|---7-----7-----7---------------------|
D|---7-----7-----7------7/8/9/10/11/---|
A|-5-----------5--------x/x/x/-x/-x/---|
E|-----5-7---5----------5/6/7/-8/-9/10-|


  Channel
e|------------------------------------|
B|------------------------------------|
G|---------77-x-2~77-x-2~77-x-2~7-----|
D|-9~8~7~6~77-x-0~77-x-0~77-x-0~7-----|
A|-9~9~7~7~55-x-x-55-x-x-55-x-x-5-----|
E|-7~6~5~4~---x-3~-----3~-----3~--2~0~|

  Verse
  Chorus
e|-5~2~5~2~5~2~----------------|
B|-5~0~5~0~5~0~----------------|
G|-0~2~0~2~0~2~777/666/44444/6~|
D|-0~0~0~0~0~0~777/555/33333/5~|
A|-x---x---x---xxx-xxx-xxxxx-x-|
E|-3~--3~--3~--777/555/33333/5~|
  
  Verse
  Channel
  Piano Part then...
G|---3333-|
D|-444444-|
A|-444444-|
E|-222222-|
  Chorus
e|-5~2~5~2~5~2~------------------------------------------------|
B|-5~0~5~0~5~0~------------------------------------------------|
G|-0~2~0~2~0~2~777/666/44444/6-777/666/4444/6-777/666/4444/6~6~|
D|-0~0~0~0~0~0~777/555/33333/5-777/555/3333/5-777/555/3333/5~~~|
A|-x---x---x---xxx-xxx-xxxxx-x-xxx-xxx-xxxx-x-xxx-xxx-xxxx-x---|
E|-3~--3~--3~--777/555/33333/5-777/555/3333/5-777/555/3333/5~~~|

e|-----------------------------------------------------------------------|
B|-----------------------------------------------------------------------|
G|-7~77~7~77~7~77~7~77~7~77~7~77~7~77~7~77~7~77~7~77~7~77~7~77~7~77~7~77-|
D|-7~77~7~77~7~77~7~77~7~77~7~77~7~77~7~77~7~77~7~77~7~77~7~77~7~77~7~77-|
A|-5~55-x-xx-5~55-x-xx-5~55-x-xx-5~55-x-xx-5~55-x-xx-5~55-x-xx-5~55-x-xx-|
E|------7~77~-----7~77~-----7~77~-----7~77~-----7~77~-----7~77~-----7~77-|

e|-----------|
B|-----------|
G|-7/6/4/3-7~|
D|-7/5/3/2-7~|
A|-x-x-x-x-5~|
E|-7/5/3/2---|

     God bless
             -Josh

  
   
Suggest correction new What's this?
You can suggest a correction to this tab. Community and Mods will review your correction and vote to approve or reject it.
comments
We did not receive enough feedback on this tab! Please rate:
print report bad tab
1 2 3 4 5
1 comment total.
0 reply
estevan711 154 wrote on August 30 2009, 06:04 pm

This is more accurate than the other one. Thanks!

guest
You may want to rate the tab now too:
select rating
Please do not post tabs as comments. Select "correction" instead!