Oops, an error
Loading. Please wait.

Vice Verses Tab

version 2
version 2

Whole song

Interactive

15,865 views 6 this week
3 commentsread comments
1 2 3 4 5
accurate
x 10
add to favorites
launch autoscroll
font size
0
reset
how to read this tab
guitar tuner
Tab Pro tools
  • play this tab
  • loop segment
  • change instrument
  • show fretboard
  • metronome
×
Best way to learn
"Vice Verses"
Autoscroll
slow
fast
+/-
esc
set tempo
stop
Contributor
Switchfoot
Vice Verses

Drop D tuning

I figured this out from this video  http://www.youtube.com/watch?v=CGGZ2QsGYak&feature=related

This should be pretty accurate, since I spent a very long time on it. it's hard to get 
picking, so I would recommend watching the video for picking pattern, hand positions, etc....

Riff A
e|------------------------------------------------------------------|
B|------------------------------------------------------------------|
G|------------------------------------------------------------------|
D|----2---2---2---2---2---2---2---2----4---4---4---4---4---4---4---4|
A|--0---0---0---0---0---0---0---0-----------------------------------|
D|-----------------------------------0---0---0---0---0---0---0---0--|

Intro: Play Riff A x6

Verse:
e|-------------------------------------------------------------------|
B|-------------------------------------------------------------------|
G|-------------------------------------------------------------------|
D|----2---2---2---2---2---2---2---2----4---4---4---4---4---4---4---4-|
A|--0---0---0---0---0---0---0---0------------------------------------|
D|-----------------------------------0---0---0---0---0---0---0---0---|

e|------------------------------------------------------------------|
B|------------------------------------------------------------------|
G|------------------------------------------------------------------|
D|----6---6---6---6---6---6---6---6----4---4---4---4---4---4---4---4|
A|--0---0---0---0---0---0---0---0-----------------------------------|
D|-----------------------------------0---0---0---0---0---0---0---0--| x2

Chorus:
e|------------------------------------------------------------------|
B|------------------------------------------------------------------|
G|------------------------------------------------------------------|
D|----2---2---2---2---2---2---2---2----4---4---4---4---4---4---4---4|
A|--0---0---0---0---0---0---0---0-----------------------------------|
D|-----------------------------------0---0---0---0---0---0---0---0--| x2

e|-------------------------------------------------------------------|
B|-------------------------------------------------------------------|
G|-------------------------------------------------------------------|
D|----7---7---7---7----6---6---6---6----4---4---4---4---4---4---4---4|
A|-------------------------------------------------------------------|
D|--4---4---4---4----2---2---2---2----0---0---0---0---0---0---0---0--|

e|------------------------------------------------------------------|
B|------------------------------------------------------------------|
G|------------------------------------------------------------------|
D|---6---6---6---6---6---6---6---6----4---4---4---4----6---6---6---6|
A|------------------------------------------------------------------|
D|-2---2---2---2---2---2---2---2----0---0---0---0----2---2---2---2--|

Verse

Chorus

Bridge:
e|--------------------------------------------------------------------|
B|---3-------3-------3-------3----------0-------0-------0-------0-----|
G|-------4-------4-------4-------4----------2-------2-------1------(1)|
D|-----4---4---4---4---4---4---4------2---2---2---2---2---2---2---2---|
A|-2------------------------------------------------------------------|
D|--------------------------------------------------------------------|
 play x2, the second time switch the very first note on the A string to a 4 on the D string

e|-----------------------------------|
B|---0-------0--------0-------0------|
G|-------2-------2--------1-------1--|
D|-0---0---0---0----2---2---2---2----|
A|-----------------------------------|
D|-----------------------------------|x2

e|--------------------------------------------------------------------|
B|---0-------0--------0-------0-------0-------0-------0-------0-------|
G|-------2-------2--------1-------1-------2-------2-------2-------2---|
D|-4---4---4---4----2---2---2---2---0---0---0---0---0---0---0---0-----|
A|--------------------------------------------------------------------|
D|--------------------------------------------------------------------| x2

Play Riff A x2, then play verse through x2. (The first time through the verse music, Jon doesn't
sing, but the second time he does)

Chorus

Play Riff A x2

End on an A chord
comments
print report bad tab
3 comments total.
0 reply
Go0fy wrote on September 28 2011, 08:45 am

Excellent!

0 reply
Zaslamel4299 wrote on October 5 2011, 08:38 am

The intro isn't fully complete, after


e|------------------------------------------------------------------|
B|------------------------------------------------------------------|
G|------------------------------------------------------------------|
D|----2---2---2---2---2---2---2---2----4---4---4---4---4---4---4---4|
A|--0---0---0---0---0---0---0---0-----------------------------------|
D|-----------------------------------0---0---0---0---0---0---0---0--|

It goes

e|------------------------------------------------------------------|
B|------------------------------------------------------------------|
G|------------------------------------------------------------------|
D|----6---6---6---6---6---6---6---6----4---4---4---4---4---4---4---4|
A|------------------------------------------------------------------|
D|--0---0---0---0---0---0---0---0----0---0---0---0---0---0---0---0--|

Then something roughly like this. Although, I don't know it exactly.

e|------------------------------------------------------------------|
B|------------------------------------------------------------------|
G|------------------------------------------------------------------|
D|----4---4---4---4---4---4---4---4----4/6---6/7--7/2---------------|
A|------------------------------------------------------------------|
D|--0---0---0---0---0---0---0---0-----------------------------------|

Then it would go back to

e|------------------------------------------------------------------|
B|------------------------------------------------------------------|
G|------------------------------------------------------------------|
D|----2---2---2---2---2---2---2---2----4---4---4---4---4---4---4---4|
A|--0---0---0---0---0---0---0---0-----------------------------------|
D|-----------------------------------0---0---0---0---0---0---0---0--|

Still trying to work out the part after that.

0 reply
Zaslamel4299 wrote on October 5 2011, 08:38 am

btw, I'm using the actual album version, thats why I managed to get that part. The intro is cut out in the video.

I want to post or [tab]
guest
You may want to rate the tab now too:
select rating
Please do not post tabs as comments. Select "correction" instead!