Oops, an error
Loading. Please wait.

Vice Verses tab

version 3
version 3

Whole song

Interactive

19,002 views 72 this week
6 commentsread comments
1 2 3 4 5
x 37
add to favorites
×
Save as Personal and add changes to this tab that will be seen only by you. Learn more ›
×
You can save this tab as Personal to edit and correct it or add notes. All changes will be seen only by you. Learn more »
launch autoscroll
font size
0
reset
how to read this tab
guitar tuner
edit
Autoscroll
slow
fast
+/-
esc
set tempo
stop
Tabbed by:hurricaneherman
Tuning:Drop D(D-A-D-G-B-E)

[Intro]
E|----------------------------------------------------------------|
B|----------------------------------------------------------------|
G|----------------------------------------------------------------|
D|--2---2---2---2---2---2---2---2---4---4---4---4---4---4---4---4-|
A|0---0---0---0---0---0---0---0-----------------------------------|
D|--------------------------------0---0---0---0---0---0---0---0---|

E|----------------------------------------------------------------|
B|----------------------------------------------------------------|
G|----------------------------------------------------------------|
D|--6---6---6---6---6---6---6---6---4---4---4---4---4---6---7---7-|
A|0---0---0---0---0---0---0---0-----------------------------------|
D|--------------------------------0---0---0---0---0---0---0---0---|

E|----------------------------------------------------------------|
B|----------------------------------------------------------------|
G|----------------------------------------------------------------|
D|--2---2---2---2---2---2---2---2---4---4---4---4---4---4---4---4-|
A|0---0---0---0---0---0---0---0-----------------------------------|
D|--------------------------------0---0---0---0---0---0---0---0---|

E|----------------------------------------------------------------|
B|----------------------------------------------------------------|
G|----------------------------------------------------------------|
D|--6---6---6---6---6---9---11--11--4---4---4---4---4---6---7---7-|
A|0---0---0---0---0---0---0---0-----------------------------------|
D|--------------------------------0---0---0---0---0---0---0---0---|

[Verse]
E|----------------------------------------------------------------|
B|----------------------------------------------------------------|
G|----------------------------------------------------------------|_____
D|--2---2---2---2---2---2---2---2---4---4---4---4---4---4---4---4-|     |
A|0---0---0---0---0---0---0---0-----------------------------------|     |
D|--------------------------------0---0---0---0---0---0---0---0---|     |
(Walking along the high tide line watching the pacific from the sidelines|
Looking for signs in the night sky wishing that I wasn't such a nice guy|X2)
                                                                        |
E|----------------------------------------------------------------|     |
B|----------------------------------------------------------------|     |
G|----------------------------------------------------------------|     |
D|--6---6---6---6---6---6---6---6---4---4---4---4---4---4---4---4-|_____|
A|0---0---0---0---0---0---0---0-----------------------------------|
D|--------------------------------0---0---0---0---0---0---0---0---|
Wonder what it means to live together looking for more than just guidelines
     Wonder what it means to live forever what it means to die

[Chorus]
E|----------------------------------------------------------------|
B|----------------------------------------------------------------|
G|----------------------------------------------------------------|
D|--2---2---2---2---2---2---2---2---4---4---4---4---4---4---4---4-|X2
A|0---0---0---0---0---0---0---0-----------------------------------|
D|--------------------------------0---0---0---0---0---0---0---0---|
            I know that there's a meaning to it all
            A little resurrection every time I fall

E|----------------------------------------------------------------|
B|----------------------------------------------------------------|
G|--2---2---2---2---1---1---1---1---------------------------------|
D|----------------------------------4---4---4---4---4---4---4---4-|
A|----------------------------------------------------------------|
D|4---4---4---4---2---2---2---2---0---0---0---0---0---0---0---0---|
You got your babies I got my hearses every blessing comes with a set of curses

E|----------------------------------------------------------------|
B|----------------------------------------------------------------|
G|----------------------------------------------------------------|
D|--2---2---2---2---2---2---2---2---4---4---4---4---2---2---2---2-|
A|----------------------------------------------------------------|
D|2---2---2---2---2---2---2---2---0---0---0---0---2---2---2---2---|
     I got my vices I got my vice verses I got my vice verses

[Interlude]
E|----------------------------------------------------------------|
B|----------------------------------------------------------------|
G|----------------------------------------------------------------|
D|--2---2---2---2---2---2---2---2---4---4---4---4---4---4---4---4-|
A|0---0---0---0---0---0---0---0-----------------------------------|
D|--------------------------------0---0---0---0---0---0---0---0---|

E|----------------------------------------------------------------|
B|----------------------------------------------------------------|
G|----------------------------------------------------------------|
D|--6---6---6---6---6---9---11--11--4---4---4---4---4---6---7---7-|
A|0---0---0---0---0---0---0---0-----------------------------------|
D|--------------------------------0---0---0---0---0---0---0---0---|

[Verse]
(Repeat verse with these lyrics.)
The wind could be my new obsession
The wind could be my next depression
The wind goes anywhere it wants to
Wishing that I learned my lesson

The ocean sounds like a garage band
Coming at me like a drunk man
The ocean telling me a thousand stories
None of them are lies

[Chorus]
E|----------------------------------------------------------------|
B|----------------------------------------------------------------|
G|----------------------------------------------------------------|
D|--2---2---2---2---2---2---2---2---4---4---4---4---4---4---4---4-|X2
A|0---0---0---0---0---0---0---0-----------------------------------|
D|--------------------------------0---0---0---0---0---0---0---0---|
            I know that there's a meaning to it all
            A little resurrection every time I fall

E|----------------------------------------------------------------|
B|----------------------------------------------------------------|
G|--2---2---2---2---1---1---1---1---------------------------------|
D|----------------------------------4---4---4---4---4---4---4---4-|
A|----------------------------------------------------------------|
D|4---4---4---4---2---2---2---2---0---0---0---0---0---0---0---0---|
You got your babies I got my hearses every blessing comes with a set of curses

E|----------------------------------------------------------------|
B|----------------------------------------------------------------|
G|----------------------------------------------------------------|
D|--2---2---2---2---2---2---2---2---4---4---4---4---2---2---2---2-|
A|----------------------------------------------------------------|
D|2---2---2---2---2---2---2---2---0---0---0---0---2---2---2---2---|
     I got my vices I got my vice verses I got my vice verses

E|----------------------------------------------------------------|
B|----------------------------------------------------------------|
G|----------------------------------------------------------------|
D|--2---2---2---2---2---2---2---2---4---4---4---4---4---4---4---4-|X2
A|0---0---0---0---0---0---0---0-----------------------------------|
D|--------------------------------0---0---0---0---0---0---0---0---|
            I know that there's a meaning to it all
            A little resurrection every time I fall

E|----------------------------------------------------------------|
B|----------------------------------------------------------------|
G|--2---2---2---2---1---1---1---1---------------------------------|
D|----------------------------------4---4---4---4---4---4---4---4-|
A|----------------------------------------------------------------|
D|4---4---4---4---2---2---2---2---0---0---0---0---0---0---0---0---|
You got your babies I got my hearses every blessing comes with a set of curses

E|----------------------------------------------------------------|
B|----------------------------------------------------------------|
G|----------------------------------------------------------------|
D|--2---2---2---2---2---2---2---2---4---4---4---4---2---2---2---2-|
A|----------------------------------------------------------------|
D|2---2---2---2---2---2---2---2---0---0---0---0---2---2---2---2---|
     I got my vices I got my vice verses I got my vice verses

[Bridge]
E|----------------------------------------------------------------|
B|--3-------3-------3-------3---3---0-------0---0---0-------0---0-|
G|------4-------4-------4---------------2---------------1---------|
D|0---0---0---0---0---0---0---0-----------------------------------|X2
A|--------------------------------0---0---0---0-------------------|
D|------------------------------------------------2---2---2---2---|
                      Let the Pacific laugh
                        Be on my epitaph

E|----------------------------------------------------------------|
B|--0-------0---0---0-------0---0---0-------0---0---0-------0---0-|
G|------2---------------1---------------2---------------1---------|
D|0---0---0---0-------------------0---0---0---0-------------------|
A|----------------------------------------------------------------|
D|----------------2---2---2---2-------------------2---2---2---2---|
           With its rising and falling and after all

E|----------------------------------------------------------------|
B|--0-------0---0---0-------0---0---0-------0-------0-------0-----|
G|------2---------------2---------------2-------2-------2-------2-|
D|----------------------------------------------------------------|X2
A|----------------------------------------------------------------|
D|4---4---4---4---2---2---2---2---0---0---0---0---0---0---0---0---|
               It's just water and I'm just a soul
           With a body of water and bone water and bone

[Interlude]
E|----------------------------------------------------------------|
B|----------------------------------------------------------------|
G|----------------------------------------------------------------|
D|--2---2---2---2---2---2---2---2---4---4---4---4---4---4---4---4-|
A|0---0---0---0---0---0---0---0-----------------------------------|
D|--------------------------------0---0---0---0---0---0---0---0---|

E|----------------------------------------------------------------|
B|----------------------------------------------------------------|
G|----------------------------------------------------------------|
D|--6---6---6---6---6---6---6---6---4---4---4---4---4---6---7---7-|
A|0---0---0---0---0---0---0---0-----------------------------------|
D|--------------------------------0---0---0---0---0---0---0---0---|

E|----------------------------------------------------------------|
B|----------------------------------------------------------------|
G|----------------------------------------------------------------|
D|--2---2---2---2---2---6---7---7---4---4---4---4---4---7---9---9-|
A|0---0---0---0---0---0---0---0-----------------------------------|
D|--------------------------------0---0---0---0---0---0---0---0---|

E|----------------------------------------------------------------|
B|----------------------------------------------------------------|
G|----------------------------------------------------------------|
D|--6---6---6---6---6---9---11--11--4---4---4---4---4---6---7---7-|
A|0---0---0---0---0---0---0---0-----------------------------------|
D|--------------------------------0---0---0---0---0---0---0---0---|

[Verse]
E|----------------------------------------------------------------|
B|----------------------------------------------------------------|
G|----------------------------------------------------------------|_____
D|--2---2---2---2---2---2---2---2---4---4---4---4---4---4---4---4-|     |
A|0---0---0---0---0---0---0---0-----------------------------------|     |
D|--------------------------------0---0---0---0---0---0---0---0---|     |
(Walking along the high tide line watching the pacific from the sidelines|
Looking for signs in the night sky wishing that I wasn't such a nice guy|X2)
                                                                        |
E|----------------------------------------------------------------|     |
B|----------------------------------------------------------------|     |
G|----------------------------------------------------------------|     |
D|--6---6---6---6---6---6---6---6---4---4---4---4---4---4---4---4-|_____|
A|0---0---0---0---0---0---0---0-----------------------------------|
D|--------------------------------0---0---0---0---0---0---0---0---|
(Wonder what it means to live together looking for more than just guidelines
     Wonder what it means to live forever what it means to die)

(Repeat verse with these lyrics.)
Where is God in the city life
Where is God in the city light
Where is God in the earthquake
Where is God in the genocide

Where are you in my broken heart
Everything seems to fall apart
Everything feels rusted over
Tell me that you're there

[Chorus]
E|----------------------------------------------------------------|
B|----------------------------------------------------------------|
G|----------------------------------------------------------------|
D|--2---2---2---2---2---2---2---2---4---4---4---4---4---4---4---4-|X2
A|0---0---0---0---0---0---0---0-----------------------------------|
D|--------------------------------0---0---0---0---0---0---0---0---|
            I know that there's a meaning to it all
            A little resurrection every time I fall

E|----------------------------------------------------------------|
B|----------------------------------------------------------------|
G|--2---2---2---2---1---1---1---1---------------------------------|
D|----------------------------------4---4---4---4---4---4---4---4-|
A|----------------------------------------------------------------|
D|4---4---4---4---2---2---2---2---0---0---0---0---0---0---0---0---|
You got your babies I got my hearses every blessing comes with a set of curses

E|----------------------------------------------------------------|
B|----------------------------------------------------------------|
G|----------------------------------------------------------------|
D|--2---2---2---2---2---2---2---2---4---4---4---4---2---2---2---2-|
A|----------------------------------------------------------------|
D|2---2---2---2---2---2---2---2---0---0---0---0---2---2---2---2---|
     I got my vices I got my vice verses I got my vice verses

[Chorus]
E|----------------------------------------------------------------|
B|----------------------------------------------------------------|
G|----------------------------------------------------------------|
D|--2---2---2---2---2---2---2---2---4---4---4---4---4---4---4---4-|X2
A|0---0---0---0---0---0---0---0-----------------------------------|
D|--------------------------------0---0---0---0---0---0---0---0---|
            I know that there's a meaning to it all
            A little resurrection every time I fall

E|----------------------------------------------------------------|
B|----------------------------------------------------------------|
G|--2---2---2---2---1---1---1---1---------------------------------|
D|----------------------------------4---4---4---4---4---4---4---4-|
A|----------------------------------------------------------------|
D|4---4---4---4---2---2---2---2---0---0---0---0---0---0---0---0---|
You got your babies I got my hearses every blessing comes with a set of curses

E|----------------------------------------------------------------|
B|----------------------------------------------------------------|
G|----------------------------------------------------------------|
D|--2---2---2---2---2---2---2---2---4---4---4---4---2---2---2---2-|
A|----------------------------------------------------------------|
D|2---2---2---2---2---2---2---2---0---0---0---0---2---2---2---2---|
     I got my vices I got my vice verses I got my vice verses


[Outro]
E|----------------------------------------------------------------|
B|----------------------------------------------------------------|
G|----------------------------------------------------------------|
D|--2---2---2---2---2---2---2---2---4---4---4---4---4---4---4---4-|
A|0---0---0---0---0---0---0---0-----------------------------------|
D|--------------------------------0---0---0---0---0---0---0---0---|

E|----------------------------------------------------------------|
B|----------------------------------------------------------------|
G|----------------------------------------------------------------|
D|--6---6---6---6---6---6---6---6---4---4---4---4---4---6---7---7-|
A|0---0---0---0---0---0---0---0-----------------------------------|
D|--------------------------------0---0---0---0---0---0---0---0---|

E|----------------------------------------------------------------|
B|----------------------------------------------------------------|
G|----------------------------------------------------------------|
D|--2---2---2---2---2---6---7---7---4---4---4---4---4---7---9---9-|
A|0---0---0---0---0---0---0---0-----------------------------------|
D|--------------------------------0---0---0---0---0---0---0---0---|

E|----------------------------------------------------------------|
B|----------------------------------------------------------------|
G|----------------------------------------------------------------|
D|--6---6---6---6---6---9---11--11--4---4---4---4---4---6---7---7-|
A|0---0---0---0---0---0---0---0-----------------------------------|
D|--------------------------------0---0---0---0---0---0---0---0---|

It slows down here.
E|--------------------------------|
B|--------------------------------|
G|--------------------2-----------|
D|--7---7---7---7-----2-----------|
A|--------------------0-----------|
D|0---0---0---0-------------------|

            
            
Suggest correction
Creating personal tab
Creating personal tab
You can edit any tab online and save it as your Personal.

You can edit, replace or remove any tab part or add personal notes – all changes will be seen only by you.

Personal tabs can be accessed anytime from any device, even offline.
Learn more »
comments
print report bad tab
6 comments total. Showing first comments.
+4 reply
nfabiano 21 Nov 05, 2011 05:48 PM

I've been playing to this and it sounds really good. I just put some chords on the Bridge cause the picking there is real tricky. I'm using Bm A2 E/E

+2 reply
nfabiano 21 Nov 05, 2011 05:50 PM

then I'm D E/E 2 x's. Then A2/F#, A2/E, A2/D 2x's. Really good TAB, thank you.

0 reply
hurricaneherman 2,230 Nov 05, 2011 09:52 PM

Thanks nfabiano, glad you like it!

guest
You may want to rate the tab now too:
select rating
Wanna post a correction for this tab? Suggest correction