Oops, an error
Loading. Please wait.

We Are Bound Chords

581 views 1 this week
2 commentsread comments
1 2 3 4 5
please rate
add to favorites
launch autoscroll
font size
0
reset
transpose
0
reset
simplify chords
display chords
guitar tuner
Autoscroll
slow
fast
+/-
esc
set tempo
stop
Help us to improve Ultimate-Guitar.com Take our survey!
×
Author
Switchfoot
We Are Bound
B-Side -- 2008

Standard (E A D G B E)
*Chords are listed at end of song

Intro - 4x
E5  E5/C

Verse 1
E5          E5/C
A slip of a tongue and fist
E5       E5/C
Aaaah Ah Aaaah Ah
E5            E5/C
A slight of a hand like this
E5       E5/C
Aaaah Ah Aaaah Ah
E5           E5/C
Touch of the fingertips
E5       E5/C
Aaaah Ah Aaaah Ah
E5               E5/C
Goes through the note we skipped
E5       E5/C
Aaaah Ah Aaaah Ah

Chorus
E5     E5/C
We are bound
E5     E5/C
We are falling through 
E5     E5/C
We are bound
E5     E5/C
We are falling through

Interlude 1
Guitar 1 - 2x
E5  E5/C

Guitar 2
e|-----------------------------------------------------------|
B|-----------------------------------------------------------|
G|--7-9-9-7--7-9-9-7--7-9-9-7--7-9-9-7--7-9-9-7--7-9-9-7--7--|
D|-----------------------------------------------------------|
A|-----------------------------------------------------------|
E|-----------------------------------------------------------|

Verse 2 - Same as V.1
Moment of bitter bliss
Licking the Judas lips
Throwing the timeless fit
With tongues of a fire we lit

Interlude 2 - 2x (I play octaves, but you can use standard chords)
Octaves:     Standard Chords:
G# G F# E    G#5 G5 F#5 E5*
C  G F# E    C5  G5 F#5 E5* 

Bridge
A         B           C
We follow sons of mess
                F#
The sons of the counterfeits
A             B              E5    E5/C  E5  E5/C
The devil has called me from inside
E5     E5/C
We are bound
E5     E5/C
We are falling through

Outro
Guitar 1 - 8x 
E5  E5/C

Guitar 2 (3:06-3:12) - Heavy delay & distortion
e|-----------|
B|-----------|
G|--7-7-7-7--|??x
D|-----------|
A|-----------|
E|-----------|

"Counterfeit sons..." (3:18-3:28)
e|-----------------------------------------------------------|
B|-----------------------------------------------------------|
G|--7-9-9-7--7-9-9-7--7-9-9-7--7-9-9-7--7-9-9-7--7-9-9-7--7--|
D|-----------------------------------------------------------|
A|-----------------------------------------------------------|
E|-----------------------------------------------------------|

*Chords Used
    E5  E5/C  G#  G  F#  E  A  B  C  F#  
e|--0----0------------------------------|
B|--5----5------------------------------|
G|--4----4----13--12-11--9--6--8---9-3--|
D|--2----2-----x---x--X--x--7--9--10-4--|
A|--2----3----11--10--9--7--7--9--10-4--|
E|--0----0------------------5--7---8-2--|

Standard Chords for Inter.2
   G#5  G5  F#5  E5*  C5    
e|-----------------------|
B|-----------------------|
G|---------------9----5--|
D|--6---5----4---9----5--|
A|--6---5----4---7----3--|
E|--4---3----2-----------|
Suggest correction
Give kudos to tab author, rate the tab!
1 2 3 4 5
comments
print report bad tab
2 comments total.
0 reply
dare_u_2_move 643 wrote on December 8 2008, 08:22 pm

hey dude, love the old borego tab, but where can you find this song? it seems really cool, but where is it?

0 reply
TIMAY21 944 wrote on December 9 2008, 01:43 am

it's a bside only available if you got the holiday package through Switchfoot's store. here's the song on youtube...
http://www.youtube.com/watch?v=lVeVY7tHe1c

thanks for looking!!

guest
You may want to rate the tab now too:
select rating
Wanna post a correction for this tab? Suggest correction