Oops, an error
Loading. Please wait.

We Are One Tonight Tab

version 1
version 1

Acoustic

Whole song

Interactive

2,599 views 1 this week
no commentswrite comment
1 2 3 4 5
x 3
add to favorites
launch autoscroll
font size
0
reset
how to read this tab
guitar tuner
Autoscroll
slow
fast
+/-
esc
set tempo
stop
Help us to improve Ultimate-Guitar.com Take our survey!
×
Author
Difficulty
intermediate
-------------------------------------------------------------------------------
                WE ARE ONE TONIGHT ACOUSTIC - Switchfoot
-------------------------------------------------------------------------------
Tabbed by: AmyLynne (burnaftermore)
Email: reporter529@aol.com

Tuning:Standard (E A D G B E)

This is a mix of what I knew already about WAOT and what I got out of the LOBH Media 
WAOT Acoustic (www.landofbrokenhearts.org/media). Enjoy!

Intro:

e|-3--3--3-------3--3--3--------3--3--3--------3333-333-33-------------------|
B|--3---1--0------3---1--0-------3---1--0------3333-111-00-------------------|
G|-----------2-0-----------2-0------------2-0--------------2-0---------------|
D|---------------------------------------------------------------------------|
A|---------------------------------------------------------------------------|
E|---------------------------------------------------------------------------|

e|-3333-333-33------3333-333-33----------------------------------------------|
B|-3333-111-00------3333-111-00----------------------------------------------|
G|-------------2-0--------------2-0------------------------------------------|
D|---------------------------------------------------------------------------|
A|---------------------------------------------------------------------------|
E|---------------------------------------------------------------------------|


Verse:
e|-33333333333333333333-22222333332222233333---------------------33333333333333333333-|
B|-33333333333333333333-33333333333333333333-0000033333000003333-33333333333333333333-|
G|----------------------22222222222222222222------------------------------------------|
D|-------------------------------------------2222222222222222222-22222222222222222222-|
A|-22222222222222222222----------------------2222222222222222222-33333333333333333333-|
E|-33333333333333333333---------------------------------------------------------------|
All rise, all fall
I'll fail you all

e|-33333333333333333333-22222333332222233333---------------------33333333333333333333-|
B|-33333333333333333333-33333333333333333333-0000033333000003333-33333333333333333333-|
G|----------------------22222222222222222222------------------------------------------|
D|-------------------------------------------2222222222222222222-22222222222222222222-|
A|-22222222222222222222----------------------2222222222222222222-33333333333333333333-|
E|-33333333333333333333---------------------------------------------------------------|
We build these cities
To stand so tall

e|-33333333333333333333-22222333332222233333---------------------33333333333333333333-|
B|-33333333333333333333-33333333333333333333-0000033333000003333-33333333333333333333-|
G|----------------------22222222222222222222------------------------------------------|
D|-------------------------------------------2222222222222222222-22222222222222222222-|
A|-22222222222222222222----------------------2222222222222222222-33333333333333333333-|
E|-33333333333333333333---------------------------------------------------------------|
We've lost
Our walls

e|-2222222222222---------------3333333333333-3333333333333333333333333333333333-------|
B|-3333333333333-3333333333333-3333333333333-3333333333333333333333333333333333-------|
G|-2222222222222----------------------------------------------------------------------|
D|---------------2222222222223-2222222222222-2222222222222222222222222222222222-------|
A|---------------2222222222222-3333333333333-3333333333333333333333333333333333-------|
E|------------------------------------------------------------------------------------|
I don't want to lose you coming down with the whole world upside down

e|-2222222222222---------------3333333333333-3333333333333333333333333333333333-------|
B|-3333333333333-3333333333333-3333333333333-3333333333333333333333333333333333-------|
G|-2222222222222----------------------------------------------------------------------|
D|---------------2222222222223-2222222222222-2222222222222222222222222222222222-------|
A|---------------2222222222222-3333333333333-3333333333333333333333333333333333-------|
E|------------------------------------------------------------------------------------|
I don't have a soul to trust in now with the whole world upside down

Chorus:
e|-333333333333333-222223333322222-----------------333333333333333---|
B|-333333333333333-333333333333333-000003333300000-333333333333333---|
G|-----------------222222222222222-----------------------------------|
D|---------------------------------222222222222222-222222222222222---|
A|-2222222222222222----------------222222222222222-333333333333333---|
E|-3333333333333333--------------------------------------------------|
We are one tonight and we're singing it

e|-333333333333333-222223333322222-----------------333333333333333---|
B|-333333333333333-333333333333333-000003333300000-333333333333333---|
G|-----------------222222222222222-----------------------------------|
D|---------------------------------222222222222222-222222222222222---|
A|-2222222222222222----------------222222222222222-333333333333333---|
E|-3333333333333333--------------------------------------------------|
Out, we are one tonight and we're dreaming out

e|-333333333333333-222223333322222-----------------333333333333333---|
B|-333333333333333-333333333333333-000003333300000-333333333333333---|
G|-----------------222222222222222-----------------------------------|
D|---------------------------------222222222222222-222222222222222---|
A|-2222222222222222----------------222222222222222-333333333333333---|
E|-3333333333333333--------------------------------------------------|
loud. and the world is flawed, but these scars will


e|-333333333333333-222223333322222-----------------333333333333333---|
B|-333333333333333-333333333333333-000003333300000-333333333333333---|
G|-----------------222222222222222-----------------------------------|
D|---------------------------------222222222222222-222222222222222---|
A|-2222222222222222----------------222222222222222-333333333333333---|
E|-3333333333333333--------------------------------------------------|
heal. We are one tonight, tonight, tonight!


e|-3--3--3-------3--3--3--------3--3--3--------3333-333-33-------------------|
B|--3---1--0------3---1--0-------3---1--0------3333-111-00-------------------|
G|-----------2-0-----------2-0------------2-0--------------2-0---------------|
D|---------------------------------------------------------------------------|
A|---------------------------------------------------------------------------|
E|---------------------------------------------------------------------------|

e|-3333-333-33------3333-333-33----------------------------------------------|
B|-3333-111-00------3333-111-00----------------------------------------------|
G|-------------2-0--------------2-0------------------------------------------|
D|---------------------------------------------------------------------------|
A|---------------------------------------------------------------------------|
E|---------------------------------------------------------------------------|

Verse 2: (same as verse 1)
e|-33333333333333333333-22222333332222233333---------------------33333333333333333333-|
B|-33333333333333333333-33333333333333333333-0000033333000003333-33333333333333333333-|
G|----------------------22222222222222222222------------------------------------------|
D|-------------------------------------------2222222222222222222-22222222222222222222-|
A|-22222222222222222222----------------------2222222222222222222-33333333333333333333-|
E|-33333333333333333333---------------------------------------------------------------|
Two eyes, one tongue, I've come undone

e|-33333333333333333333-22222333332222233333---------------------33333333333333333333-|
B|-33333333333333333333-33333333333333333333-0000033333000003333-33333333333333333333-|
G|----------------------22222222222222222222------------------------------------------|
D|-------------------------------------------2222222222222222222-22222222222222222222-|
A|-22222222222222222222----------------------2222222222222222222-33333333333333333333-|
E|-33333333333333333333---------------------------------------------------------------|
I'm no victim, I paid these dues

e|-33333333333333333333-22222333332222233333---------------------33333333333333333333-|
B|-33333333333333333333-33333333333333333333-0000033333000003333-33333333333333333333-|
G|----------------------22222222222222222222------------------------------------------|
D|-------------------------------------------2222222222222222222-22222222222222222222-|
A|-22222222222222222222----------------------2222222222222222222-33333333333333333333-|
E|-33333333333333333333---------------------------------------------------------------|
I came to lose

e|-2222222222222---------------3333333333333-3333333333333333333333333333333333-------|
B|-3333333333333-3333333333333-3333333333333-3333333333333333333333333333333333-------|
G|-2222222222222----------------------------------------------------------------------|
D|---------------2222222222223-2222222222222-2222222222222222222222222222222222-------|
A|---------------2222222222222-3333333333333-3333333333333333333333333333333333-------|
E|------------------------------------------------------------------------------------|
I don't want to fight about it now with the whole world upside down

e|-2222222222222---------------3333333333333-3333333333333333333333333333333333-------|
B|-3333333333333-3333333333333-3333333333333-3333333333333333333333333333333333-------|
G|-2222222222222----------------------------------------------------------------------|
D|---------------2222222222223-2222222222222-2222222222222222222222222222222222-------|
A|---------------2222222222222-3333333333333-3333333333333333333333333333333333-------|
E|------------------------------------------------------------------------------------|
I don't have a soul to trust in now with the whole world upside down

Chorus:
e|-333333333333333-222223333322222-----------------333333333333333---|
B|-333333333333333-333333333333333-000003333300000-333333333333333---|
G|-----------------222222222222222-----------------------------------|
D|---------------------------------222222222222222-222222222222222---|
A|-2222222222222222----------------222222222222222-333333333333333---|
E|-3333333333333333--------------------------------------------------|
We are one tonight and we're singing it

e|-333333333333333-222223333322222-----------------333333333333333---|
B|-333333333333333-333333333333333-000003333300000-333333333333333---|
G|-----------------222222222222222-----------------------------------|
D|---------------------------------222222222222222-222222222222222---|
A|-2222222222222222----------------222222222222222-333333333333333---|
E|-3333333333333333--------------------------------------------------|
Out, we are one tonight and we're dreaming out

e|-333333333333333-222223333322222-----------------333333333333333---|
B|-333333333333333-333333333333333-000003333300000-333333333333333---|
G|-----------------222222222222222-----------------------------------|
D|---------------------------------222222222222222-222222222222222---|
A|-2222222222222222----------------222222222222222-333333333333333---|
E|-3333333333333333--------------------------------------------------|
loud. and the world is flawed, but these scars will

e|-333333333333333-222223333322222-----------------333333333333333---|
B|-333333333333333-333333333333333-000003333300000-333333333333333---|
G|-----------------222222222222222-----------------------------------|
D|---------------------------------222222222222222-222222222222222---|
A|-2222222222222222----------------222222222222222-333333333333333---|
E|-3333333333333333--------------------------------------------------|
heal. We are one tonight, tonight, tonight!

e|-2222222222222---------------3333333333333-3333333333333333333333333333333333-------|
B|-3333333333333-3333333333333-3333333333333-3333333333333333333333333333333333-------|
G|-2222222222222----------------------------------------------------------------------|
D|---------------2222222222223-2222222222222-2222222222222222222222222222222222-------|
A|---------------2222222222222-3333333333333-3333333333333333333333333333333333-------|
E|------------------------------------------------------------------------------------|
I don't want to lose the common ground with my whole world upside down

e|-2222222222222---------------3333333333333-3333333333333333333333333333333333-------|
B|-3333333333333-3333333333333-3333333333333-3333333333333333333333333333333333-------|
G|-2222222222222----------------------------------------------------------------------|
D|---------------2222222222223-2222222222222-2222222222222222222222222222222222-------|
A|---------------2222222222222-3333333333333-3333333333333333333333333333333333-------|
E|------------------------------------------------------------------------------------|
I don't want to fight about it now in my world that's burning out

e|-33333333333333333333333333333-333333333333333333333333-2222233333222223333322222---|
B|-33333333333333333333333333333-333333333333333333333333-3333333333333333333333333---|
G|--------------------------------------------------------2222222222222222222222222---|
D|-22222222222222222222222222222------------------------------------------------------|
A|-33333333333333333333333333333-222222222222222222222222-----------------------------|
E|-------------------------------333333333333333333333333-----------------------------|
Let's slow the evening down, slow it down

e|----------------------33333333333333333333-333333333333333333-22222333332222233333--|
B|-00000333330000033333-33333333333333333333-333333333333333333-33333333333333333333--|
G|--------------------------------------------------------------22222222222222222222--|
D|-22222222222222222222-22222222222222222222------------------------------------------|
A|-22222222222222222222-33333333333333333333-222222222222222222-----------------------|
E|-------------------------------------------333333333333333333-----------------------|
Slow it down, please slow down, down

e|-------------------------------------33333333333333333333333333333333333---|
B|-00000333330000033333000003333300000-33333333333333333333333333333333333---|
G|---------------------------------------------------------------------------|
D|-22222222222222222222222222222222222-22222222222222222222222222222222222---|
A|-22222222222222222222222222222222222-33333333333333333333333333333333333---|
E|---------------------------------------------------------------------------|
down, the stars are coming out

e|-333333333333333-222223333322222-----------------333333333333333---|
B|-333333333333333-333333333333333-000003333300000-333333333333333---|
G|-----------------222222222222222-----------------------------------|
D|---------------------------------222222222222222-222222222222222---|
A|-2222222222222222----------------222222222222222-333333333333333---|
E|-3333333333333333--------------------------------------------------|
We are one, we are one

e|-333333333333333-222223333322222-----------------333333333333333---|
B|-333333333333333-333333333333333-000003333300000-333333333333333---|
G|-----------------222222222222222-----------------------------------|
D|---------------------------------222222222222222-222222222222222---|
A|-2222222222222222----------------222222222222222-333333333333333---|
E|-3333333333333333--------------------------------------------------|
We are one, one, we are one

e|-333333333333333-222223333322222-----------------333333333333333---|
B|-333333333333333-333333333333333-000003333300000-333333333333333---|
G|-----------------222222222222222-----------------------------------|
D|---------------------------------222222222222222-222222222222222---|
A|-2222222222222222----------------222222222222222-333333333333333---|
E|-3333333333333333--------------------------------------------------|
Tonight, tonight

e|-333333333333333-222223333322222-----------------333333333333333--3-|
B|-333333333333333-333333333333333-000003333300000-333333333333333--3-|
G|-----------------222222222222222----------------------------------0-|
D|---------------------------------222222222222222-222222222222222--0-|
A|-2222222222222222----------------222222222222222-333333333333333--2-|
E|-3333333333333333-------------------------------------------------3-|
Tonight

===============================================================================
Suggest correction
Give kudos to tab author, rate the tab!
1 2 3 4 5
comments
print report bad tab
guest
You may want to rate the tab now too:
select rating
Wanna post a correction for this tab? Suggest correction