Oops, an error
Loading. Please wait.

We Are One Tonight Bass Tab

version 2
version 2

Whole song

Interactive

597 views 1 this week
no commentswrite comment
1 2 3 4 5
3 more votes to show rating
add to favorites
launch autoscroll
font size
0
reset
guitar tuner
Autoscroll
slow
fast
+/-
esc
set tempo
stop
Help us to improve Ultimate-Guitar.com Take our survey!
×
Difficulty
novice
We Are One Tonight- Switchfoot

Tuning Standard

Email: emokidfunkspunk@yahoo.com

Key: / slide up

This is in standard for those like me who don't like switching back and forth to drop D. 
little harde

Intro
G|------------|
D|------------|
A|---5-7--7-3-|
E|-3----------|X2

Verse 1
G|----------------------------------------------------------|
D|---------------------45----------------------------45-----|
A|--02---233--023202-----333--023202---333--023202-----333--|
E|----0-------------0---------------0-------------0---------|

Pre-Chorus
G|------------------------------|
D|------------------------------|
A|--/5--57--73--35--57--73--33--|
E|------------------------------|

Chorus
G|---------------------------------------|
D|---------------------------------------|
A|-----------55555555-77777777-33333333--|
E|--33333333-----------------------------|x2

G|---------------------------------------|
D|---------------------------------------|
A|-----------55555555----------33333333--|
E|--33333333----------00000000-----------|

G|---------------------------------------|
D|---------------------------------------|
A|-----------55555555-77777777-33333333--|
E|--33333333-----------------------------|x2

Verse 2
G|----------------------------------------------------------|
D|---------------------45----------------------------45-----|
A|--02---233--023202-----333--023202---333--023202-----333--|
E|----0-------------0---------------0-------------0---------|

Pre-Chorus
G|------------------------------|
D|------------------------------|
A|--/5--57--73--35--57--73--33--|
E|------------------------------|

Chorus
G|---------------------------------------|
D|---------------------------------------|
A|-----------55555555-77777777-33333333--|
E|--33333333-----------------------------|x2

G|---------------------------------------|
D|---------------------------------------|
A|-----------55555555----------33333333--|
E|--33333333----------00000000-----------|

G|---------------------------------------|
D|---------------------------------------|
A|-----------55555555-77777777-33333333--|
E|--33333333-----------------------------|x2

Pre-Chorus
G|------------------------------|
D|------------------------------|
A|--/5--57--73--35--57--73--33--|
E|------------------------------|

Outro
G|---------------------------------------|
D|---------------------------------------|
A|-----------55555555-77777777-33333333--|
E|--33333333-----------------------------|x4

G|---------------------------------------|
D|---------------------------------------|
A|---------------------------------------|
E|--33333333-55555555-77777777-88888888--|

G|---------------------------------------|
D|---------------------------------------|
A|-----------55555555-77777777-33333333--|
E|--55555555-----------------------------|x2

that is tabbed in stardard. though, in the song, it's drop D. I just don't like retuning 
play a different song once I'm done. I thought others could be the same. so, there you go
Suggest correction
Give kudos to tab author, rate the tab!
1 2 3 4 5
comments
print report bad tab
guest
You may want to rate the tab now too:
select rating
Wanna post a correction for this tab? Suggest correction