Oops, an error
Loading. Please wait.

We Are One Tonight Bass Tab

version 3
version 3

Whole song

Interactive

1,595 views 1 this week
no commentswrite comment
1 2 3 4 5
1 last vote to show rating
add to favorites
launch autoscroll
font size
0
reset
guitar tuner
Autoscroll
slow
fast
+/-
esc
set tempo
stop
Help us to improve Ultimate-Guitar.com Take our survey!
×
Author
Difficulty
novice
Tabbed By : Roguebassist
e-mail: d3athwish456@yahoo.com

Tuning: E, A, D, G

Both those other two tabs are wrong. Just a weee bit. And it's originally played in Drop 
But, this is gonna be standard. I find it more fun.

Intro(x2)
G|-------------------------------------|
D|-------------------------------------|
A|----------55555555-77777777-33333333-|
E|-33333333----------------------------|

Verse 1
*** The "33333/12~" is my own but sounds better because it drags with his voice. The 
is "33333" ***
G|-----------------------------------------------------------------------|
D|-----------------------45----------------45----------------------45----|
A|-02----233---023202------333---023202------33333/12*---023202------333-|
E|---0---------------0-----------------0-----------------------0---------|

Pre-Chorus
*** The "--33-3-3333" is mine, I just think I sounds better. The regular way is just the "3*" *--|
G|-----------------------------------------------------------------------------------------------|
D|-----------------------------------------------------------------------------------------------|
A|-/5*----7*----3*--33-3-3333/5*----7*----3*--33-3-3333------------------------------------------|
E|-----------------------------------------------------------------------------------------------|

Chorus
G|-------------------------------------|
D|-------------------------------------|
A|----------55555555-77777777-33333333-|
E|-33333333----------------------------|(x2)

(10's no 1-0(12's not 1-2(I do it this way, but you can do E3-A5-E0--|A3)))
G|-------------------------------------------------------------------|
D|-------------------------------------------------------------------|
A|-------------------------------------------------------------------|
E|-33333333-1010101010101010-1212121212121212-88888888---------------|(x1)

G|-------------------------------------|
D|-------------------------------------|
A|----------55555555-77777777-33333333-|
E|-33333333----------------------------|(x2)

Verse 2
*** The "33333/12~" is my own but sounds better because it drags with his voice. The 
is "33333" ***
G|-----------------------------------------------------------------------|
D|-----------------------45----------------45----------------------45----|
A|-02----233---023202------333---023202------33333/12*---023202------333-|
E|---0---------------0-----------------0-----------------------0---------|

Pre-Chorus
*** The "--33-3-3333" is mine, I just think I sounds better. The regular way is just the "3*" *--|
G|-----------------------------------------------------------------------------------------------|
D|-----------------------------------------------------------------------------------------------|
A|-/5*----7*----3*--33-3-3333/5*----7*----3*--33-3-3333------------------------------------------|
E|-----------------------------------------------------------------------------------------------|

Chorus
G|-------------------------------------|
D|-------------------------------------|
A|----------55555555-77777777-33333333-|
E|-33333333----------------------------|(x2)

(10's no 1-0(12's not 1-2(I do it this way, but you can do E3-A5-E0--|A3)))
G|-------------------------------------------------------------------|
D|-------------------------------------------------------------------|
A|-------------------------------------------------------------------|
E|-33333333-1010101010101010-1212121212121212-88888888---------------|(x1)

G|-------------------------------------|
D|-------------------------------------|
A|----------55555555-77777777-33333333-|
E|-33333333----------------------------|(x2)

Pre-Chorus
*** The "--33-3-3333" is mine, I just think I sounds better. The regular way is just the "3*" *--|
G|-----------------------------------------------------------------------------------------------|
D|-----------------------------------------------------------------------------------------------|
A|-/5*----7*----3*--33-3-3333/5*----7*----3*--33-3-3333------------------------------------------|
E|-----------------------------------------------------------------------------------------------|

My Imprevising
when he says down, play this.
Down #1
G|-9*-|
Down #2
G|-7*-|
Down #3
G|-5*-|
Down #4
A|-7*-|
Down #5
A|-5*-|
Down #6
A|-3*--33333333-55555555-|

Ending
G|------------------------------------|
D|------------------------------------|
A|---------55555555-77777777-33333333-|
E|-33333333---------------------------|(x4)

G|-------------------------------------|
D|-------------------------------------|
A|-------------------------------------|
E|-33333333-55555555-77777777-88888888-|

G|------------------------------------|
D|------------------------------------|
A|---------55555555-77777777-33333333-|
E|-33333333---------------------------|(x2)

Ta-da. Presto. I have some imporvising ini there. So, don't get confused
Suggest correction
Give kudos to tab author, rate the tab!
1 2 3 4 5
comments
print report bad tab
guest
You may want to rate the tab now too:
select rating
Wanna post a correction for this tab? Suggest correction