Oops, an error
Loading. Please wait.

When We Come Alive Tab

version 3
version 3

Intro

  • This is the easiest and simplest way to play the i... Show more
19 views 1 this week
no commentswrite comment
1 2 3 4 5
3 more votes to show rating
add to favorites
launch autoscroll
font size
0
reset
how to read this tab
guitar tuner
Autoscroll
slow
fast
+/-
esc
set tempo
stop
Help us to improve Ultimate-Guitar.com Take our survey!
×
Author
Difficulty
novice
About this tab version
This is the easiest and simplest way to play the intro for Switchfoot's 'When We Come Alive'. Was this info helpful? Yes No
SWITCHFOOT - WHEN WE COME ALIVE (INTRO TAB)

STANDARD TUNING AND NO CAPO

This is the easiest and simplest way to play the intro for Switchfoot's 'When We Come Alive'.


[Intro]

e|--------0---------------0-----------------0---------------0----------------|
B|----3-------2---2---0-------0---------3-------2---2---0-------0------------|
G|--2---2---2---2---2---2---2---2-1-1/2---2---2---2---2---2---2---2\1-1/2~---|
D|---------------------------------------------------------------------------|
A|---------------------------------------------------------------------------|
E|---------------------------------------------------------------------------|

Then this part can be accompanied by the 4-chord progression:

    D     A    F#m    E
e|--2-0---0--------------------------|
B|--3---2---2-0-2-0---0--------------|
G|--2---------------2----------------|  
D|--0--------------------------------|
A|-----------------------------------|
E|-----------------------------------|(x2)


************************************

| /  Slide up
| \  Slide down
| ~  Vibrato

************************************
Suggest correction
Give kudos to tab author, rate the tab!
1 2 3 4 5
comments
print report bad tab
guest
You may want to rate the tab now too:
select rating
Wanna post a correction for this tab? Suggest correction