Oops, an error
Loading. Please wait.

Where I Belong Tab

version 1
version 1

Whole song

Interactive

10,957 views 24 this week
1 commentread comment
1 2 3 4 5
excellent!
x 7
add to favorites
launch autoscroll
font size
0
reset
how to read this tab
guitar tuner
Autoscroll
slow
fast
+/-
esc
set tempo
stop
Help us to improve Ultimate-Guitar.com Take our survey!
×
Author
-------------------------------------------------------------------------------
                             Where I Belong - Switchfoot
-------------------------------------------------------------------------------
Tabbed by: SwitchFender
Email:c.jacob.church@gmail.com

Guitar Tone: Something fuzzy/overdriven, a little more treble with some healthy reverb 
and just noticeable delay
Tuning:D A D G B e

Intro (Notes shown on low D string are played by bass: This bar ONLY)
e|----------------------------------------------------------------|
B|----------------------------------------------------------------|
G|----2-------2-------2-------4---2---2-------2--------2------4---| x2
D|-----4-------4-------4-------4-------4-------4--------4------4--|
A|----------------------------------------------------------------|
D|0-------0-----2-4-------4----/7-0-------0-----2-4-------4----/7-|
 *~       ~       ~       ~       ~       ~       ~       ~       
Intro(After Chords start)
e|------------------------------------------------------------------|
B|-------------------------------2----------------------------------|
G|2---2-------2-------2-------2h4--2---2-------2-------2-------4--(2) x2
D|-----2-------2-------2----------------4-------4-------4-------4---|
A|------------------------------------------------------------------|
D|~-------~--------~-------~-------~-------~-------~-------~-------~|

Verse Chords (notes in parentheses are optional, personally i like'em)
e| --------------------------------|
B|(10)----(10)----(3)-----(3)------|
G| 9-------9-------2-------2-------| This is the foundation of just about
D| 7-------7-------0-------0-------|          the whole song
A| 7-------7-------0-------0-------|
D| 7-------7-------0-------0-------|
   A5              D5

Verse 1                           
e|-----------------------------------5-5-------------|
B|-------------------------------2h3h5-55-5-32h3-2---|
G|-------------------------------2------2-2-22---2---|
D|---------------------------------------------------|
A|---------------------------------------------------|
D|~---~---~---~---~---~---~----------~-----------~---|

Mini-Chorus
e| -----------------------------------------------|
B| --10-12-10----10-12-10---10-121210---10-121210-|
G| -9--9--9--9--9--9--9--9-9--9------9-9--9------9|
D|11----------11----------0-----------0-----------|
A| 0-----------0----------0-----------0-----------|
D| ~-----~-----~-----~----~-----~-----~-----~-----|

Verse 2
e|---------------------------------------------------------------------|
B|----------------5---5---5-------5-------------------5-----------5----|
G|----------------------------4h66--6-4-----------------------4h66--6-4|
D|---------------------------------------------------------------------|
A|---------------------------------------------------------------------|
D|~---~---~---~---~---~---~---~-------~---~---~---~---~---~---~-------~|

Chorus
e| ---------------------------------------------------------|
B| --10-12-10----10-12-10---10----10-------101010-1010101010|
G| -9--9--9--9--9--9--9--9-9-----9----------9 9 9--9 9 9 9 9| x2
D|11----------11----------0---12----1212--------0--0 0 0 0 0|
A| 0-----------0----------0------------0--------------------|
D| ~-----~-----~-----~----~-----~------~--------~-----------|
cont.
e| -----------------------------------------------|
B|10-10-12-10----10-12-10---10-121210---10-121210-|
G| 99--9--9--9--9--9--9--9-9--9------9-9--9------9|
D| 0----------11----------0-----------0-----------|
A| ------------0----------0-----------0-----------|
D| ~-----~-----~-----~----~-----~-----~-----~-----|

Verse 3
e|-----------------------------------------|
B|-----------------------------------------|
G|--------------------------------1010-1010|
D|---------------------------------9 9--9 9|
A|---------------------------------0 0--0 0|
D|~---~---~---~---~---~---~---~-----------~|
cont.
e|---------------------------------------------|
B|--------------10h12--10-------10h2--10-------|
G|-------------------11--9h11--9----11--9h11--9|
D|---------------------------11-------------11-|
A|---------------------------------------------|
D|---~---~---~---~---------------~-------------|
cont.
e| -----------------------------------|
B|10h12--1010h12--1010h12--1010h12--10|
G| ----11-------11-------11-------11--|
D| -----------------------------------|
A| -----------------------------------|
D| ~-----------------~----------------|

Chorus (Some notes omitted) 

Bridge
e|99------------99------------77------1212------55------55------55------55--55--|
B|--1010----1010--1010----1010--99--99----99--99--55--55--55--55--55--55--55--55|
G|------1111----------1111--------99--------99------77------77------77----------|
D|------------------------------------------------------------------------------|
A|------------------------------------------------------------------------------|
D|~-------------~-------------~--------~--------~-------~-------~-------~-------|
cont.
e|99------------1212------------77------55------5---------------5---------------|
B|--1010----1010----1010----1010--99--99--55--55---55---------5----55---------5-|
G|------1111------------1111--------99------77---------77-6-7----------77-6-7---|
D|------------------------------------------------------------------------------|
A|------------------------------------------------------------------------------|
D|~--------------~--------------~-------~-------~-------~-------~-------~-------|

Solo Guitar 1 (Jon)
e|-----------------------------------------------------------------|
B|5-5-5---------5-5-5-5---------5-5/77-77777/99-99999/1010-10101010|
G|------7-7-6-6---------7-7-6-6------------------------------------|
D|-----------------------------------------------------------------|
A|-----------------------------------------------------------------|
D|~-------~-------~-------~-------~--------~--------~--------------|
cont.
e|---------------------------------------------------------------------|
B|10/1212-12121212/14-14-14-141414----1212----1010----1414/15--14--12--|
G|---------------------------------------------------------------------|
D|---------------------------------------------------------------------|
A|---------------------------------------------------------------------|
D|~--------------~---------------~---------------~----------~----------|
cont.
e|----------------------------------------------------------|
B|10--------------------------------------------------------|
G|--r-r-rrrrr/1313-1313131313/14-14-14141414--14-14-14141414|
D|----------------------------------------------------------|
A|----------------------------------------------------------|
D|--~----------~---------------~----------------~-----------|
   r=11
Solo Guitar 2 (Drew)
e| ----------------------------------------------99|
B| --10-121210----10-121210---10-121210---10-1212--|
G| -9--9------9--9--9------9-9--9------9-9--9------|
D|11-----------11-----------0-----------0----------|
A| 0------------0-----------0-----------0----------|
D| ~-----~------~-----~-----~-----~-----~-----~----|
cont.
e| --------------------------------------------999|
B| --10-121210----10-121210---10-121210---10-12---|
G| -9--9------9--9--9------9-9--9------9-9--9-----|
D|11-----------11-----------0-----------0---------|
A| 0------------0-----------0-----------0---------|
D| ~-----~------~-----~-----~-----~-----~-----~---|

Verse 4 (Chords x2)

Bridge Chords
e| 9-------7-------5-------5-------|
B|10-------9-------5-------5-------|
G|11-------9-------7-------7-------|
D|11-------9-------7-------7-------|
A| 9-------7-------5-------5-------|
D| ~---~---~---~---~---~---~---~---|
  F#m      E       Dsus2

Outro (Same as Verse Chords x5,then end on A5)

*NOTE: Ive used the "~" symbol to try to mark the first beat of each measure, hope it helps!
************************************

| /   slide up
| \   slide down
| h   hammer-on
| p   pull-off
| ~   vibrato
| +   harmonic
| x   Mute note
| b   Bend
| pb  Pre-bend
| br  Bend release
| pbr Pre-bend release
| brb Bend release bend

************************************
Suggest correction
What's this?
You can suggest a correction to this tab. Community and Mods will review your correction and vote to approve or reject it.
comments
print report bad tab
1 comment total.
0 reply
SwitchFender 268 wrote on November 9 2011, 02:47 am

Sorry i typo'd on the 3rd Verse! Should be:

Verse 3
e|-----------------------------------------|
B|--------------------------------1010-1010|
G|-------------------------------- 9 9- 9 9|
D|---------------------------------0 0- 0 0|
A|-----------------------------------------|
D|~---~---~---~---~---~---~---~-----------~|

guest
You may want to rate the tab now too:
select rating
Please do not post tabs as comments. Select "correction" instead!