Oops, an error
Loading. Please wait.

Where The Light Shines Through intro tab

version 2
version 2

Intro

  • This version contains both correct electric guitar... Show more
1,705 views 18 this week
no commentswrite comment
1 2 3 4 5
x 3
add to favorites
×
Save as Personal and add changes to this tab that will be seen only by you. Learn more ›
×
You can save this tab as Personal to edit and correct it or add notes. All changes will be seen only by you. Learn more »
launch autoscroll
font size
0
reset
how to read this tab
guitar tuner
edit
Autoscroll
slow
fast
+/-
esc
set tempo
stop
Author
[Intro]

e|---------------------------------------------------------------------------|
B|------4-4p2-2-0------9-9p7-7p5h7-4-----4-4p2-2-0---------------------------|
G|------4-4p2-2-1------9-9p8-8p6h8-4-----4-4p2-2-1------5------1-------------|
D|-----------------------------------------------------7------2--------------|
A|---2---------------7-----------------2--------------7------2---------------|
E|---------------------------------------------------5------0----------------|

e|---------------------------------------------------------------------------|
B|------4-4p2-2-0------9-9p7-7p5h7-4-----4-4p2-2-0---------------------------|
G|------4-4p2-2-1------9-9p8-8p6h8-4-----4-4p2-2-1------5------1-------------|
D|-----------------------------------------------------7------2--------------|
A|---2---------------7-----------------2--------------7------2---------------|
E|---------------------------------------------------5------0----------------|


[Verse]

e|---------------------------------------------------------------------------|
B|------4-4p2-2-0------9-9p7-7p5h7-4-----4-4p2-2-0---------------------------|
G|------4-4p2-2-1------9-9p8-8p6h8-4-----4-4p2-2-1------5------1-------------|
D|-----------------------------------------------------7------2--------------|
A|---2---------------7-----------------2--------------7------2---------------|
E|---------------------------------------------------5------0----------------|

e|---------------------------------------------------------------------------|
B|------4-4p2-2-0------9-9p7-7p5h7-4-----4-4p2-2-0---------------------------|
G|------4-4p2-2-1------9-9p8-8p6h8-4-----4-4p2-2-1------5------1-------------|
D|-----------------------------------------------------7------2--------------|
A|---2---------------7-----------------2--------------7------2---------------|
E|---------------------------------------------------5------0----------------|

C#m
Why're you running from yourself now?
F#
You can't run away



[Chorus]
       B                     E
'cause your scars shine like dark stars
           B                              A          E
Yeah, your wounds are where the light shines through
         B                 E
So let's go there, to that place where
              F#                                 E
We sing these broken prayers where the light shines through
                                  B          A
The wound is where the light shines through
           E                            B          A   E
Yeah, the wound is where the light shines through

[Verse]

e|---------------------------------------------------------------------------|
B|------4-4p2-2-0------9-9p7-7p5h7-4-----4-4p2-2-0---------------------------|
G|------4-4p2-2-1------9-9p8-8p6h8-4-----4-4p2-2-1------5------1-------------|
D|-----------------------------------------------------7------2--------------|
A|---2---------------7-----------------2--------------7------2---------------|
E|---------------------------------------------------5------0----------------|

e|---------------------------------------------------------------------------|
B|------4-4p2-2-0------9-9p7-7p5h7-4-----4-4p2-2-0---------------------------|
G|------4-4p2-2-1------9-9p8-8p6h8-4-----4-4p2-2-1------5------1-------------|
D|-----------------------------------------------------7------2--------------|
A|---2---------------7-----------------2--------------7------2---------------|
E|---------------------------------------------------5------0----------------|

C#m
I wanna see that light shining
F#
Brighter than the pain

[Chorus]
       B                     E
'cause your scars shine like dark stars
           B                              A          E
Yeah, your wounds are where the light shines through
         B                 E
So let's go there, to that place where
              F#                                 E
We sing these broken prayers where the light shines through
                                  B          A
The wound is where the light shines through
           E                            B          A   E
Yeah, the wound is where the light shines through

B C C#

[Bridge]
D                                     A 
Mama, ain't the blood just proof I'm human?
C                                G            B C C#
Mama, ain't the wound just retribution?
D                                           F#   E
Well Mama, ain't the scar like a vision of grace?

B         A          E      B
(It's the scars that make a man
                   A          E          B
So maybe all these scars are [friends?])


[Outro]
                                    E
The wound is where the light shines through
                                   B
The wound is where the light finds you
                                    E
The wound is where the light shines through (Yeah)

The wound is where the light (finds you)

      B
Yeah, your scars (The wound is where the light shines through)
           E
shine like dark stars (The wound is where the light finds you)
          F#m
Yeah, the wound is where the (The wound is where the shines through)
A             E
light shines through 

                        B
It's where the light shines through
A          E                         B
Yeah, yeah, it's where the light shines through
A    E                  B
Yeah, the only tattoo I have 
  A          E                           B 
Oh, oh, oh, oh, it's where the light shines through
A                       E                       B          A   E
Where the light shines, where the the light shines through
                     B         A   E
Where the light shines through
                            B
It's where the light shines through


| g   Grace note
| (n) Ghost note
| h   Hammer-on
| p   Pull-off
| r   Release
| >   Accented note
| t   Tapping
| b   Bend
| br  Bend release
| pb  Pre-bend
| pbr Pre-bend release
| /   Slide up
| \   Slide down
| ~   Vibrato
| s   Slap
| P   Pop
| PM  Palm mute
| TR  Trill
| N   Tremolo

************************************
Suggest correction
Creating personal tab
Creating personal tab
You can edit any tab online and save it as your Personal.

You can edit, replace or remove any tab part or add personal notes – all changes will be seen only by you.

Personal tabs can be accessed anytime from any device, even offline.
Learn more »
Give kudos to tab author, rate the tab!
1 2 3 4 5
comments
print report bad tab
guest
You may want to rate the tab now too:
select rating
Wanna post a correction for this tab? Suggest correction