Oops, an error
Loading. Please wait.

Where The Light Shines Through intro tab

version 3
version 3

Intro

  • This version contains both correct electric guitar... Show more
940 views 3 this week
no commentswrite comment
1 2 3 4 5
x 9
add to favorites
×
Save as Personal and add changes to this tab that will be seen only by you. Learn more ›
×
You can save this tab as Personal to edit and correct it or add notes. All changes will be seen only by you. Learn more »
launch autoscroll
font size
0
reset
how to read this tab
guitar tuner
edit
Autoscroll
slow
fast
+/-
esc
set tempo
stop
Author
Difficulty
About this tab version
This version contains both correct electric guitar sections in the intro of this song. Was this info helpful? Yes No
[Intro] 

Guitar 1
e|--------------------|---------------------------|---------------------|----------0-------|
B|-----7-7\5--5x4-----|-------12-12\10--10x9------|----7-7\5--5x4-------|----------0-------|
G|-----8-8\6--6x4-----|-------13-13\11--11x9------|----8-8\6--6x4-------|----------1-------|
D|--------------------|---------------------------|---------------------|-----7-6--2-------|
A|--------------------|---------------------------|---------------------|---7------2-------|
E|--7-----------------|--/12----------------------|-7-------------------|-5--------0-------|

Guitar 2
e|--------------------|---------------------------|---------------------|------------------|
B|--------------------|---------------------------|---------------------|------------------|
G|-----8-8\6--6\4-----|-------13-13\11--11\9-9h11-|-8--8-8\6--6\4----4--|------4--(4)------|
D|--------------------|---------------------------|----------------6---6|-------7--6-------|
A|--------------------|---------------------------|---------------------|----------7-------|
E|--------------------|---------------------------|---------------------|-0--------0-------|


************************************

| x   Dead note
| (n) Ghost note
| h   Hammer-on
| /   Slide up
| \   Slide down


************************************

This is my first tab, so please feel free 
to leave comments and corrections

            
            
Suggest correction
Creating personal tab
Creating personal tab
You can edit any tab online and save it as your Personal.

You can edit, replace or remove any tab part or add personal notes – all changes will be seen only by you.

Personal tabs can be accessed anytime from any device, even offline.
Learn more »
comments
print report bad tab
guest
You may want to rate the tab now too:
select rating
Wanna post a correction for this tab? Suggest correction