Oops, an error
Loading. Please wait.

Yesterdays Bass Tab

version 1
version 1

Whole song

1,466 views 1 this week
no commentswrite comment
1 2 3 4 5
accurate
x 3
add to favorites
launch autoscroll
font size
0
reset
guitar tuner
Autoscroll
slow
fast
+/-
esc
set tempo
stop
Help us to improve Ultimate-Guitar.com Take our survey!
×
-------------------------------------------------------------------------------
			     YESTERDAYS - Switchfoot
-------------------------------------------------------------------------------

Tabbed By : kazia


Tuning: standard

Intro: x2
G|----------7-----------------------------------------------|-------7------------|
D|----7--9-----9-9-9-9-7-5--5----------------4-------------|---7-9---------------|
A|-----------------------------------5-5-5-5----------------|--------into verse--|
E|--------------------------------5-(pick up)-----2--3-3-----|-------------------|

Verse: x2
G|-----------------------------------------------------------------------------|
D|---------------------------------------9--7----------------------------------|
A|---7-7-7-7--9--10--10-----------------------10-------------------------------|
E|-----------------------------5--7-7-7----------------------------------------|

G|--------------------------------------------------------------7)---------------|
D|---------------------------------------4---------------(--7-9------------------|
A|---7-7-7-7--9--10--10---------5-5-5-5------------into verse 2nd time-----------|
E|----------------------------5-(pick up)-----2--3-3-----------------------------|

Pre-Chorus:
G|----------------|
D|----6h7--6------|
A|--7-------------|
E|----------------|

Chorus: (room for improv) x4
G|--------------------------------------------------------------------------------------|
D|-------------------------------------7 (A chord-4 beats)------------------------------|
A|-9 (F# chord for 4 beats)--5 (D chord-4 beats)-------7(E chord-4 beats)---------------|
E|--------------------------------------------------------------------------------------|

    For E Chord:
G|---------------------------|
D|---------------------------|
A|----7h9--7-----------------|
E|-------------9--(7)--------|


Intro x2
Verse x2
Pre-Chorus
Chorus x6

Bridge:
G|-----------------------------------|
D|-----------------------------------|
A|--9 (F#-4 beats)--5 (D-4 beats)----|
E|-----------------------------------|

G|---------------------------------|
D|---------------7 (A-8 beats)-----|
A|---5 (D-8 beats)-----------------|
E|---------------------------------|

Repeat D and A chords until end.

Lick over A chord:
G|----------6-----------------------|
D|--7--6h7-----7-6-----6h7----------|
A|------------------4-------4-------|
E|----------------------------------|


| /  slide up
| \  slide down
| h  hammer-on
| p  pull-off
| ~  vibrato
| +  harmonic
| x  Mute note
=============================================================
Suggest correction
Give kudos to tab author, rate the tab!
1 2 3 4 5
comments
print report bad tab
guest
You may want to rate the tab now too:
select rating
Wanna post a correction for this tab? Suggest correction