Oops, an error
Loading. Please wait.

Yesterdays Bass Tab

version 2
version 2

Whole song

2,156 views 1 this week
1 commentread comment
1 2 3 4 5
excellent!
x 4
add to favorites
launch autoscroll
font size
0
reset
guitar tuner
Tab Pro tools
  • play this tab
  • loop segment
  • change instrument
  • show fretboard
  • metronome
×
Best way to learn
"Yesterdays"
Autoscroll
slow
fast
+/-
esc
set tempo
stop
Contributor
-------------------------------------
YESTERDAYS – SWITCHFOOT – OH! GRAVITY
-------------------------------------
Tabbed By : kstar19
e-mail: gopered@hotmail.com
Tuning: standard

Here is the 98% correct version(I don’t know what the 2% wrong is, but I’m not perfect,
I know it’s there somewhere.  Awesome song.  My great grandma died not to long ago, and
I heard the news I immediately thought of this song so I decided to tab it.  Props to 
for the first tab, but it was a little off.  Have fun.

Intro
G|----7-----------------|
D|7-9---7--55------4----|
A|--------------5-5-----|  x2
E|-------------5-----233|

Verse
G|----7---------------------------------------------|
D|7-9-----------------9-7-------9--------------4----|
A|------7-7-9-10----------10-10---7-7-9-10--5-5-----|  x2
E|----------------5-7----------------------5-----233|

Pre-Chorus
G|---------|
D|--6/7-6--|
A|7--------|
E|--------7|

Chorus
G|--------------------------4h6p4-|
D|4-444-------47-----------------7|
A|------7-555----0-0040--77-------|
E|--------------------------------|

G|------------------------------|
D|4-444-------47----------------|
A|------7-555----0-0040-77-7-4-7|
E|------------------------------|

G|--------------------------4h6p4-|
D|4-444-------47-----------------7|
A|------7-555----0-0040--77-------|
E|--------------------------------|

G|-------------------|
D|4-44-7-4--------7--|
A|---------5-55-7---0|
E|-------------------|

Intro
G|----7-----------------|
D|7-9---7--55------4----|
A|--------------5-5-----|  x2
E|-------------5-----233|

Verse
G|----7---------------------------------------------|
D|7-9-----------------9-7-------9--------------4----|
A|------7-7-9-10----------10-10---7-7-9-10--5-5-----|  x2
E|----------------5-7----------------------5-----233|
Pre-Chorus
G|---------|
D|---------|
A|7--------|
E|---------|

Chorus
G|--------------------------4h6p4-|
D|4-444-------47-----------------7|
A|------7-555----0-0040--77-------|
E|--------------------------------|

G|------------------------------|
D|4-444-------47----------------|
A|------7-555----0-0040-77-7-4-7|
E|------------------------------|

G|--------------------------4h6p4-|
D|4-444-------47-----------------7|
A|------7-555----0-0040--77-------|
E|--------------------------------|

G|-----------------|
D|4-44-7-4--------7|
A|---------5-55-7--|
E|-----------------|

Bridge Thingy
G|----6----------------------------|
D|7-67--76------6/7-6----------4-7-|
A|---------44-4-------55-5-5-57---7|  x2
E|---------------------------------|

G|----6-----------------------------|
D|7-67--76------6/7-6---------------|
A|---------44-4-------5-5-5---5---57|
E|--------------------------7---7---|

Chorus
G|--------------------------4h6p4-|
D|4-444-------47-----------------7|
A|------7-555----0-0040--77-------|
E|--------------------------------|

G|---------------------------------|
D|4-444-------47-------------66-7-9|
A|------7-555----0-0040-77-7-------|
E|---------------------------------|

G|--------------------------4h6p4-|
D|4-444-------47-----------------7|
A|------7-555----0-0040--77-------|
E|--------------------------------|

G|----------------|
D|4-444-------47--|
A|------7-555----0|
E|----------------|

 /  slide
 h  hammer-on
 p  pull-off
comments
print report bad tab
1 comment total.
0 reply
Googeforlife wrote on October 17 2007, 05:15 pm

Great tab. I believe the intro is actually:

G|----7---------------------------|
D|7-9---9-9-9-9--7--55------4----|
A|------------------------5-5-----|
E|-----------------------5-----233|

I want to post or [tab]
guest
You may want to rate the tab now too:
select rating
Please do not post tabs as comments. Select "correction" instead!