Oops, an error
Loading. Please wait.

Yesterdays Tab

version 2
version 2

Whole song

1,991 views 1 this week
4 commentsread comments
1 2 3 4 5
accurate
x 6
add to favorites
launch autoscroll
font size
0
reset
how to read this tab
guitar tuner
Tab Pro tools
  • play this tab
  • loop segment
  • change instrument
  • show fretboard
  • metronome
Autoscroll
slow
fast
+/-
esc
set tempo
stop
Contributor
Difficulty
intermediate
Intro:
e--------------------------------------------------------------------->
B-----------------7~---7\----00~-------------------7~---7\----00~----->
G-7~---7-6--4~-----------2-2-------7777-7-6--4~-----------2-2--------->
D--------------------------------------------------------------------->
A--------------------------------------------------------------------->
E--------------------------------------------------------------------->

Verse 1:
e-0~---------------------------------------2~------------->
B-0~------------3~--3-2-0~-----------------3~------------->
G-00000-2-4~-----------------0~-----2-4~---2~--2-2-44~---->
D-2~---------------------------------------0~------------->
A-2~------------------------------------------------------>
E-0~------------------------------------------------------>
Flowers cut and brought inside/Black cars in a single line/Your family in
suits and ties/And you’re free

Verse 1:
e-0~---------------------------------------2~--5\---------0~------->
B-0~------------3~--3-2-0~-----------------3~-------------0~------->
G-00000-2-4~-----------------0~-----2-4~---2~----2-44-4~--1--2-1~-->
D-2~---------------------------------------0~-------------2~------->
A-2~------------------------------------------------------2~------->
E-0~------------------------------------------------------0~------->
The ache I feel inside/is where the life has left your eyes/I’m alone for
our last goodbye/But you’re free

Chorus:
      (yesterday)           (gone)            (yesterday)             (on)
e-5-5~----------------5-5~----------------5-5~----------------5-5~--------->
B-5--5~----0~---0~----5--5~----0~---0~----5--5~----0~---0~----5--5~----0~-->
G-6~-------2~---1~----6~-------2~---1~----6~-------2~---1~----6~-------2~-->
D-4~-------2~---2~----4~-------2~---2~----4~-------2~---2~----4~-------2~-->
A----------0~---2~-------------0~---2~-------------0~---2~-------------0~-->
E---------------0~------------------0~------------------0~----------------->
           (yesterday)                             (yesterday)
I remember you like yesterday, yesterday/I still can’t believe you’re gone,
oh… I remember you like yesterday, yesterday/And until I’m with you, I’ll
carry on

---REPEAT INTRO

Verse 2:
e-0~---------------------------------------2~------------->
B-0~------------3~----2-0~-----------------3~------------->
G-0~----2-4~-----------------0~-----2-4~---2~--2-2-44~---->
D-2~---------------------------------------0~------------->
A-2~------------------------------------------------------>
E-0~------------------------------------------------------>
Adrift on your ocean floor/I feel weightless, numb, and sore/A part of you
in me is torn/And you’re free

Verse 2:
e-0~---------------------------------------2~--5\---------0~------->
B-0~------------3~----2-0~-----------------3~-------------0~------->
G-0~----2-4~-----------------0~-----2-4~---2~----2-44-4~--1--2-1~-->
D-2~---------------------------------------0~-------------2~------->
A-2~------------------------------------------------------2~------->
E-0~------------------------------------------------------0~------->
I woke from a dream last night/I dreamt that you were by my side/reminding
me I still had life/in me

---REPEAT CHORUS

Bridge:
e-0-0-00-0-0-00-0-0-000-00-0-0-00-0-0-00-0-0-00-00-0-0-00-0-0-00-0-0-00-00->
B-0-0-00-0-0-00-x-x-xxx-xx-0-0-00-0-0-00-x-x-xx-xx-0-0-00-0-0-00-x-x-xx-xx->
G-x-x-xx-9-9-99-7-7-777-77-x-x-xx-9-9-99-7-7-77-77-x-x-xx-9-9-99-7-7-77-77->
D-7-7-77-9-9-99-7-7-777-77-7-7-77-9-9-99-7-7-77-77-7-7-77-9-9-99-7-7-77-77->
A-7-7-77-7-7-77-5-5-555-55-7-7-77-7-7-77-5-5-55-55-7-7-77-7-7-77-5-5-55-55->
E-5-5-55-------------------5-5-55------------------5-5-55------------------>
                            I’ll carry on

Chorus 2:
      (yesterday)           (gone)            (yesterday)            (long)
e-2~------------------5-5~----------------5-5~----------------5-5~-----0~-->
B-2~-------0~---0~----5--5~----0~---0~----5--5~----0~---0~----5--5~----0~-->
G-2~-------2~---1~----6~-------2~---1~----6~-------2~---1~----6~-------6~-->
D-4~-------2~---2~----4~-------2~---2~----4~-------2~---2~----4~-------7~-->
A-4~-------0~---2~-------------0~---2~-------------0~---2~-------------7~-->
E-2~------------0~------------------0~------------------0~-------------5~-->
           (yesterday)                             (yesterday)
Every lament is a love song/Yesterday, yesterday/I still can’t believe
you’re gone/Every lament is a love song/Yesterday, yesterday/I still can’t
believe you’re gone/So long my friend, so long
comments
print report bad tab
4 comments total. Showing first comments.
0 reply
dave04 wrote on January 23 2007, 01:29 pm

i think the 5 star rating was given by the author on an alias account, and the tab is missing a lot in the verse

0 reply
nfgrox312 wrote on January 29 2007, 11:05 pm

basically i mixed this tab and ^yours. the intro i play dave04's way but the verses i played this way. its easier to sing and play at the same time with this one. i think its stupid to accuse aquaknight of rating his own tab since he's got tons of other great tabs that get tons of ratings. this is just a tough song.

0 reply
dave04 wrote on May 15 2007, 08:38 pm

yeah it was rude of me, i'm sorry

I want to post or [tab]
guest
You may want to rate the tab now too:
select rating
Please do not post tabs as comments. Select "correction" instead!