Oops, an error
Loading. Please wait.

Yet Bass Tab

1,027 views 1 this week
no commentswrite comment
1 2 3 4 5
excellent!
x 4
add to favorites
launch autoscroll
font size
0
reset
guitar tuner
Tab Pro tools
  • play this tab
  • loop segment
  • change instrument
  • show fretboard
  • metronome
Autoscroll
slow
fast
+/-
esc
set tempo
stop
Contributor
Difficulty
-----------------------------------------------------------------------------
                                   YET                          SWITCHFOOT
-----------------------------------------------------------------------------

Tabbed by:hurricaneherman
Tuning:Standard

Here is the bass tab for Switchfoot's song "Yet", from their album Hello
Hurricane.

NOTE: The lyrics don't line up right, so don't use them as guidelines.

~INTRO~

G|----------------------------------------------------------------|
D|----------------------------------------------------------------|
A|----------7-------------------------------7---------------------|
E|1-/-8-----------8-\-1-----------1-/-8-----------8-\-1-----------|

~VERSE 1~

G|----------------------------------------------------------------|
D|----------------------------------------------------------------|
A|----------------3---3---------------------------0---0-----------|X[2]
E|1---1---------------------------3---3---------------------------|
  All attempts have failed        all my heads are tails
  Shes got teary eyes             I've got reasons why           I'm

~PRE-CHORUS~

G|----------------------------------------------------------------|
D|----------------------------------------------------------------|
A|----------------------------------------------------------------|
E|1---1-----------3---3-----------1---1-----------3---3-----------|
Losing ground and gaining speed I've lost myself or most of me I'm

G|----------------------------------------------------------------|
D|----------------------------------------------------------------|
A|5--------------/10----------------------------------------------|
E|--------------------------------1---------------1-/-8-----------|
  headed for the final precipice                      But you haven't lost me

~CHORUS~

G|----------------------------------------------------------------|
D|----------------------------------------------------------------|
A|----------------------------------------------------------------|
E|3---3---------/-8---8---------\-3---3---------/-8---8-----------|
  Yet     no you haven't lost me yet                   I'll sing until my

G|----------------------------------------------------------------|
D|----------------------------------------------------------------|
A|0-------------------------------------------------------------3-|
E|----------------3---------------1---------------------------3---|
  Heart           Caves           In     no you haven't lost me yet

~INTERLUDE~

G|--------------------------------|
D|--------------------------------|
A|(3)let ring---------------------|
E|--------------------------------|

~VERSE 2~

G|----------------------------------------------------------------|
D|----------------------------------------------------------------|
A|3---3-------0-/-7---7-----------------------0---3---3-----------|
E|---------------------------13-\-3---3-3---------------------8-\-|
  These days pass me by           dream with open eyes

G|----------------------------------------------------------------|
D|----------------------------------------------------------------|
A|--------------------------------------------0---3---2---0-------|
E|1---1-1-----1-/-8---8-8-8-----\-3---3-3-------------------------|
  Nightmares haunt my days        Visions blur my nights        I'm

~PRE-CHORUS 2~

G|----------------------------------------------------------------|
D|----------------------------------------------------------------|
A|------------------------------------------------------------0-/-|
E|1---1-1---------3---3-3-----8-\-1---1-1---------3---3-3---------|
  So confused what's true or false what's fact or fiction after all I

G|----------------------------------------------------------------|
D|----------------5---5-5-----------------------------------------|
A|5---5-5---------------------------------------------------------|
E|----------------------------1-----------------------------------|
 Feel like I'm    apparitions pet

G|------------------------|
D|------------------------|
A|------------------------|
E|1---1-3---3-5---5-7-8---|
         But you haven't lost me yet

~REPEAT CHORUS~

~BRIDGE~

G|----------------------------------------------------------------|
D|----------------------------------------------------------------|
A|----------------------------------------------------------------|
E|8---8-----------3---------------1-------------------------------|

G|--------------------------------|
D|--------------------------------|
A|--------------------------------|
E|1-----1-1-----1-1---3---5---7---|

G|----------------------------------------------------------------|
D|----------------------------------------------------------------|
A|----------------------------------------------------------------|
E|8---8-----------3---------------1-------------------------------|

G|--------------------------------|
D|--------------------------------|
A|--------------------------------|
E|1-----1-1-----1-1---3---5---8---|

G|----------------------------------------------------------------|
D|----------------------------------------------------------------|
A|----------------7---------------------------------------7-------|
E|8-------------------8-\-1-----------1-/-8-------------------8-\1|
If it doesn't break if it doesn't break if it doesn't break if it

G|----------------------------------------------------------------|
D|----------------------------------------------------------------|
A|3-3-3-3-3-3-3/8-----------------3-3-3-3-3-3-3/8-----------------|
E|----------------1-1-1-1-1-1-1-1-----------------1-1-1-1-1-1-1-1-|
Doesn't break your heart it isn't love if it doesn't break your heart it's
                             not enough

G|----------------------------------------------------------------|
D|----------------------------------------------------------------|
A|0-0-0-0-------------------------3-3-3-3-3-3-3-3-----------------|
E|--------3-3-3-3-1-1-1-1-1-1-1-1-----------------1-1-1-1-1-1-1-1-|
It's when your breaking down with your insides coming out that's when you
    find out what your heart is made of and you haven't lost me yet

~CHORUS 2~

G|----------------------------------------------------------------|
D|----------------------------------------------------------------|
A|0-0-0-0-------------------------3-3-3-3-3-3-3-3-----------------|
E|--------3-3-3-3-1-1-1-1-1-1-1-1-----------------1-1-1-1-1-1-1-1-|
  yet      no you haven't lost me yet                   I'll run until my

G|--------------------------------|
D|--------------------------------|
A|0-0-0-0-------------------------|
E|--------3-3-3-3-1-1-1-1-1-1-1-1-|
 
  Heart   caves   in       no you haven't lost me yet

~OUTRO~

G|----------------------------------------------------------------|
D|----------------------------------------------------------------|
A|----------7-------------------------------7---------------------|
E|1-/-8-----------8-\-1-----------1-/-8-----------8-----8---------|

=============================================================================
/ = slide up
\ = slide down

I don't think this tab is 100% correct, but no one else had tabbed it, so
this is a good guideline for others to build on.
I hope this tab is helpful in what ever it is you're going to do with it.

Peace, Love, I'm out.
comments
print report bad tab
I want to post or [tab]
guest
You may want to rate the tab now too:
select rating
Please do not post tabs as comments. Select "correction" instead!