Oops, an error
Loading. Please wait.

Your Love Is A Song Tab

version 1
version 1

Whole song

68,749 views 15 this week
9 commentsread comments
1 2 3 4 5
accurate
x 19
add to favorites
launch autoscroll
font size
0
reset
how to read this tab
guitar tuner
Autoscroll
slow
fast
+/-
esc
set tempo
stop
Help us to improve Ultimate-Guitar.com Take our survey!
×
Author
TIMAY21 2,077
Switchfoot
Your Love Is A Song
Hello Hurricane -- 2009

These are chords for Switchfoot's new song "Your Love Is A Song" from their
upcoming album/release Hello Hurricane -- due out in November 10th, 2009.

Tuning - Standard (E A D G B e)
*Chords are listed at end of song 
NOTE: Chords tabbed out not listed (Ex. Verses)

Intro
F#m11  Dsus2  Asus2  E

Verse 1
     I   hear  you breathing   in    another day begins 
     The stars are falling out my dreams are fading now, fading out 
e|------------------------------------------------------|
B|--10--10--10--10--10--10--10--10--10--10--10--10--10--|
G|---9---9---9---9---9---9---9---9---9---9---9---9---9--|
D|---x---x---x---x---x---x---x---x---x---x---x---x---x--|
A|---9---9---9---9---9---9---9---9---9---9---9---9---9--|
E|------------------------------------------------------|
    ooh       ooohh       ooh 
e|-----------------------------------------|
B|--7-7-7-7--10-10-10-10--9-9-9-9-9-9-9-9--|
G|--6-6-6-6---9--9--9--9--9-9-9-9-9-9-9-9--|
D|--x-x-x-x---x--x--x--x--x-x-x-x-x-x-x-x--|
A|--7-7-7-7---9--9--9--9--7-7-7-7-7-7-7-7--|
E|-----------------------------------------|

Pre-Chorus 1 
I've been keeping my eyes      wide        open 
e|-----------------------------------------------------------|
B|-------------------7-7-7-7--10-10-10-10--9-9-9-9-9-7-9-10--|
G|-------------------6-6-6-6---9--9--9--9--9-9-9-9-9-9-9--9--|
D|-------------------x-x-x-x---x--x--x--x--x-x-x-x-x-x-x--x--|
A|-------------------7-7-7-7---9--9--9--9--7-7-7-7-7-7-7--7--|
E|-----------------------------------------------------------|

I've been keeping my eyes      wide        open 
e|----------------------------------------------------------|
B|-------------------7-7-7-7--10-10-10-10--9-9-9-9-9-9-9-9--|
G|-------------------6-6-6-6---9--9--9--9--9-9-9-9-9-9-9-9--|
D|-------------------x-x-x-x---x--x--x--x--x-x-x-x-x-x-x-x--|
A|-------------------7-7-7-7---9--9--9--9--7-7-7-7-7-7-7-7--|
E|----------------------------------------------------------|
                                      
Chorus 1
F#m11                  Dsus2  
Oh, Your love is a symphony 
        Asus2
All around me 
             E
Running through me 
Oh, Your love is a melody 
Underneath me 
Running to me 
Bm                 Dsus2
Oh, Your love is a song 

Verse 2 - Same as V1
The dawn is fire bright against the city lights 
The clouds are glowing now the moon is blacking out 

Pre-Chorus 2 - Same as PC1
I've been keeping my mind wide open (2x)

Chorus 2
F#m11                  Dsus2  
Oh, Your love is a symphony 
        Asus2
All around me 
             E
Running through me  
Oh, Your love is a melody 
Underneath me 
Running to me 
F#m11               Dsus2 
Oh, Your love is a song
                   Asus2  E
Oh, Your love is a song
Oh, Your love is a song
Your love is strong

Pre-Chorus 3 - Same as PC1&2 (2x) 
With my eyes wide open 
I've got my eyes wide open 
I've been keeping my hopes unbroken 

Chorus 1

Outro
F#5   G#5        A5
Yea---h, yeah, yeah
F#5   G#5        A5
Yea---h, yeah, yeah
F#5  G#5        A5
Your love is my remedy 
Bm                 Dsus2
Oh, Your love is a song

*Chords Used
    F#m11  Dsus2  Asus2  E  B  F#5  G#5  A5     
e|-----------0------0----0------------------|
B|----0------3------0----0--3---------------|
G|----2------2------2----1--4---------------|
D|----2------0------2----2--4---4----6---7--|
A|----x-------------0----2--2---4----6---7--|
E|----2------------------0------2----4---5--|

Alternative Chords for Intro/Chorus 
  F#m11* OR F#m  D5  Aadd9  E5      
e|--0-----------(0)----0----0---|
B|--0-------10--(0)----0----0---|
G|--6-------11---7-----6----9---|
D|--7-------11---7-----7----9---|
A|--9--------9---5-----0----7---|
E|-------------------------(0)--|
NOTE: Alternative chords are for those who just 
      want to have give the song a more "acoustic" feel 
Suggest correction new What's this?
You can suggest a correction to this tab. Community and Mods will review your correction and vote to approve or reject it.
comments
print report bad tab
9 comments total. Showing first comments.
0 reply
estevan711 154 wrote on October 30 2009, 01:54 pm

great tab!
except this chord:
e|----
B|--7-
G|--6-
D|--x-
A|--7-
E|----

sounds off.
I think its this:
e|----
B|--7-
G|--6-
D|--7-
A|----
E|----

+1 reply
estevan711 154 wrote on October 30 2009, 02:36 pm

nm its:

e|----
B|--7-
G|--7-
D|----
A|--5-
E|----

0 reply
slyderturtle 44 wrote on November 11 2009, 06:16 pm

good, but estevan711 is right with the x5x77x chord.
Also, there is a lot more in the chorus. One guitar is doing what you say, and another is doing powerchords. after the little intro thing, there is also another guitar doing a little thing over top as well

guest
You may want to rate the tab now too:
select rating
Please do not post tabs as comments. Select "correction" instead!