Oops, an error
Loading. Please wait.

Your Love Is A Song Bass Tab

version 2
version 2

Whole song

4,145 views 3 this week
no commentswrite comment
1 2 3 4 5
x 10
add to favorites
launch autoscroll
font size
0
reset
guitar tuner
Autoscroll
slow
fast
+/-
esc
set tempo
stop
Help us to improve Ultimate-Guitar.com Take our survey!
×
Author
Difficulty
-----------------------------------------------------------------------------
                           YOUR LOVE IS A SONG                 SWITCHFOOT
-----------------------------------------------------------------------------

Tabbed by:hurricaneherman
Tuning:Standard

Here is the bass tab for Switchfoot's song "Your Love Is A Song", from their
album Hello Hurricane.

NOTE:The lyrics don't line up with the notes, so don't use them as guidelines

~INTRO~

It doesn't start right away with the bass. This comes in a little later.

G|----------------------------------------------------------------|
D|----------------------------------------------------------------|
A|----------------5-5-5-5-5-5-5-5-0-0-0-0-0-0-0-0-----------------|
E|2-2-2-2-2-2-2-2---------------------------------0---------------|
Yeah

~VERSE 1~

NO BASS

I hear you breathing in another day begins
The stars are falling out my dreams are fading now fading out

~PRE-CHORUS~

G|------------------------------------------------------------------|
D|------------------------------------------------------------------|
A|4\0-0-0-0-4-4-4-4-2-2-2-2-2-2-2-2-0-0-0-0-4-4-4-4-2-2-2-2-2-2-2-2-|
E|------------------------------------------------------------------|
I've been keeping my eyes wide open I've been keeping my eyes wide open

~CHORUS~

G|----------------------------------------------------------------|
D|4-4-4-4-4-4-4-4-------------------------------------------------|
A|----------------5-5-5-5-5-5-5-5-0-0-0-0-0-0-0-0-----------------|X[2]
E|------------------------------------------------0-0-0-0-0-0-0-0-|
Oh your love is a symphony all around me running through me
Oh your love is a melody underneath me running to me

G|--------------------------------|
D|--------------------------------|
A|2-2-2-2-2-2-2-2-5-------------\-|
E|--------------------------------|
Oh your love is a song

~VERSE 2~

You might want to listen to it to get the timing correct.

G|----------------------------------------------------------------|
D|----------------------------------------7-----------------------|
A|0---------------12----11----9---0-------------6-----0---2h3/7---|
E|----------------------------------------------------------------|
  The dawn is fire bright against the city lights

G|----------------------------------------------------------------|
D|----------------------------------------7-7---------------------|
A|0---------------12----11----9---0-------------6-6---------------|
E|----------------------------------------------------4-4---0-0---|
  The clouds are glowing now the moon is blacking out  blacking out

~REPEAT PRE-CHORUS~

So I've been keeping my mind wide open
I've been keeping my mind wide open yeah

~CHORUS 2~

Repeat first line of chorus 1, and then add this.

Only play notes in parentheses the first time. 

G|----------------------------------------------------------------|
D|----------------------------------------------------------------|
A|0-0-0-0-0-0-0-0-5-5-5-5-5-5-5-5-7-7-7-7-7-7-7-7-2(2-2-2-2-2-2-2)|X[2]
E|----------------------------------------------------------------|
  Oh Your love is a song your love is a song

~PRE-CHORUS 2~

Only play notes in parentheses the first time. 

G|------------------------------------------------------------------|
D|------------------------------------------------------------------|
A|4\0-0-0-0-4-4-4-4-2-2-2-2-2-2-2-2-0-0-0-0-4-4-4-4-2-2-2(2-2-2-2-2)|X[2]
E|------------------------------------------------------------------|
  I've got my eyes wide open I've got my eyes wide open
  I've been keeping my hopes unbroken yeah yeah

~OUTRO-CHORUS~

Repeat first line of chorus 1, and the add this.

G|----------------------------------------------------------------|
D|4-4-4-4-4-4-4-4-----------------4-4-4-4-2-2-2-2-0-0-0-0-0-0-0-0-|
A|----------------5-5-5-5-5-5-5-5---------------------------------|
E|----------------------------------------------------------------|
  Your love is a song yeah

G|-------------------------------|    |---------------------------|
D|4-4-4-4-2-2-2-2-0-0-0-0-0-0-0-0|    |---------------------------|
A|-------------------------------|X[2]|2-2-2-2-2-2-2-2-5----------|
E|-------------------------------|    |---------------------------|
  Yeah                                oh your love is a song
  Your love is my remedy
=============================================================================

/ = slide up
\ = slide down
h = hammer on

This tab should be 100% correct, but if you find something wrong, you can
leave a comment so I can fix it.
I hope you enjoy this tab, and that it is easy to follow.

Peace, Love, I'm, out.
Suggest correction
comments
print report bad tab
guest
You may want to rate the tab now too:
select rating
Wanna post a correction for this tab? Suggest correction