Oops, an error
Loading. Please wait.

Your Love Is A Song Tab

version 4
version 4

Whole song

7,370 views 1 this week
no commentswrite comment
1 2 3 4 5
x 4
add to favorites
launch autoscroll
font size
0
reset
how to read this tab
guitar tuner
Autoscroll
slow
fast
+/-
esc
set tempo
stop
Help us to improve Ultimate-Guitar.com Take our survey!
×
Author
Difficulty
novice
                             Your Love is a Song - Switchfoot


Tabbed by: guitarmaniac

Email: dabigcheez462@aim.com

The timing isn't right and the strumming is mostly eighth notes so i won't tab it out, 
i listened to the song and watched the live video and i think i have it perfect.


************************************

| /   slide up
| \   slide down
| h   hammer-on
| p   pull-off
| ~   vibrato
| +   harmonic
| x   Mute note
| b   Bend
| pb  Pre-bend
| br  Bend release
| pbr Pre-bend release
| brb Bend release bend

************************************


Tuning: Standard

Intro:
(synthesizer)
e|---------------------------------------------------------------------------|
B|----10----------7----------10-------------9--------------------------------|
G|----11----------7----------11-------------9--------------------------------|
D|----11----------7----------11-------------9--------------------------------|
A|----9-----------5----------9--------------7--------------------------------|
E|---------------------------------------------------------------------------|

Guitar entrance at 0:13
e|---------------------------------------------------------------------------|
B|-----------------3---------------------------------------------------------|
G|-----------------2---------2-----------------------------------------------|
D|-----4-----------0---------2----------------2------------------------------|
A|-----4-----------0---------0----------------2------------------------------|
E|-----2--------------------------------------0------------------------------|

Verse:
e|---------------------------------------------------------------------------|
B|-----10----------7------10-----9-------------------------------------------|
G|-----11----------7------11-----9-------------------------------------------|
D|-----11----------7------11-----9-------------------------------------------|
A|-----9-----------5------9------7-------------------------------------------|
E|---------------------------------------------------------------------------|

Prechorus:
e|---------------------------------------------------------------------------|
B|-----7-----11----9---------------------------------------------------------|
G|-----7-----11----9---------------------------------------------------------|
D|-----7-----11----9---------------------------------------------------------|
A|-----5-----9-----7---------------------------------------------------------|
E|---------------------------------------------------------------------------|

|                                                    |
| Chorus is the same as guitar entrance in beginning |
|                                                    |

Post-chorus:
e|---------------------------------------------------------------------------|
B|------------3--------------------------------------------------------------|
G|---4--------2--------------------------------------------------------------|
D|---4--------0--------------------------------------------------------------|
A|---2--------0--------------------------------------------------------------|
E|---------------------------------------------------------------------------|

|                                     |
| Bridge is the same as the prechorus |
|                                     |

Outro Part 1:
e|---------------------------------------------------------------------------|
B|------------3--------------------------------------------------------------|
G|------------2--------------------------------------------------------------|
D|---4----2---0--------------------------------------------------------------|
A|---4----2---0--------------------------------------------------------------|
E|---2----0------------------------------------------------------------------|

Outro Part 2:
e|---------------------------------------------------------------------------|
B|--------3------------------------------------------------------------------|
G|---4----2------------------------------------------------------------------|
D|---4----0------------------------------------------------------------------|
A|---2----0------------------------------------------------------------------|
E|---------------------------------------------------------------------------|

Song Order:

Intro (Synthesizer)
Guitar Entrance
Verse x2
Pre-chorus x2
Chorus
Post-Chorus
Verse x2
Pre-chorus x2
Chorus (skip post-chorus and play progression two mroe times)
Bridge
Outro Part 1
Outro Part 2


E-mail me if you have any requests or comment for corrections!
Suggest correction
comments
print report bad tab
guest
You may want to rate the tab now too:
select rating
Wanna post a correction for this tab? Suggest correction