Oops, an error
Loading. Please wait.

Dyou Have A Car tab

version 1
version 1

Whole song

  • There were no tabs for the whole song so I came up... Show more
by Swmrs
520 views 21 this week
no commentswrite comment
1 2 3 4 5
x 4
add to favorites
×
Save as Personal and add changes to this tab that will be seen only by you. Learn more ›
×
You can save this tab as Personal to edit and correct it or add notes. All changes will be seen only by you. Learn more »
launch autoscroll
font size
0
reset
how to read this tab
guitar tuner
edit
Autoscroll
slow
fast
+/-
esc
set tempo
stop
About this tab version
There were no tabs for the whole song so I came up with this, although I know it isn't 100% accurate. Was this info helpful? Yes No
[Intro]

e|---------------------------------------------|
B|---------------------------------------------|
G|---------------------------------------------| x4
D|---------------------------------------------|
A|---------------------------------------------|
E|-0-0-2-4---0-0-0-2-4---0-0-2-4---0-0-0-2-4---|

[Verse]

e|---------------------------------------------|
B|---------------------------------------------|
G|---------------------------------------------| x2
D|---------------------------------------------|
A|---------------------------------------------|
E|-0-0-2-4---0-0-0-2-4---0-0-2-4---0-0-0-2-4---|


e|---------------------------------------------|
B|---------------------------------------------|
G|---------------------------------------------| 
D|-6-6-6-6-7-7-7-7-----------------------------|
A|-6-6-6-6-7-7-7-7-----------------------------|
E|-4-4-4-4-5-5-5-5-----------------------------|

e|---------------------------------------------|
B|---------------------------------------------|
G|---------------------------------------------| x2
D|---------------------------------------------|
A|---------------------------------------------|
E|-0-0-2-4---0-0-0-2-4---0-0-2-4---0-0-0-2-4---|


e|---------------------------------------------|
B|---------------------------------------------|
G|---------------------------------------------| 
D|-6-6-6-6-7-7-7-7-----------------------------|
A|-6-6-6-6-7-7-7-7-----------------------------|
E|-4-4-4-4-5-5-5-5-----------------------------|

e|---------------------------------------------|
B|---------------------------------------------|
G|---------------------------------------------| x2
D|---------------------------------------------|
A|---------------------------------------------|
E|-0-0-2-4---0-0-0-2-4---0-0-2-4---0-0-0-2-4---|


e|---------------------------------------------|
B|---------------------------------------------|
G|---------------------------------------------| 
D|-6-6-6-6-7-7-7-7-----------------------------|
A|-6-6-6-6-7-7-7-7-----------------------------|
E|-4-4-4-4-5-5-5-5-----------------------------|

e|---------------------------------------------|
B|---------------------------------------------|
G|---------------------------------------------| x2
D|---------------------------------------------|
A|---------------------------------------------|
E|-0-0-2-4---0-0-0-2-4---0-0-2-4---0-0-0-2-4---|


e|---------------------------------------------|
B|---------------------------------------------|
G|---------------------------------------------| 
D|-6-6-6-6-7-7-7-7-----------------------------|
A|-6-6-6-6-7-7-7-7-----------------------------|
E|-4-4-4-4-5-5-5-5-----------------------------|

[Pre-Chorus]

e|-----------------------------------------------|
B|-----------------------------------------------|
G|-6~-8/11-11/13-13~--16-16-14-13-16-16-14-13-6~-|
D|-----------------------------------------------|
A|-----------------------------------------------|
E|-----------------------------------------------|

e|-----------------------------------------------|
B|-----------------------------------------------|
G|-6~-8/11-11/13-13~--9~-13-11~------------------|
D|-----------------------------------------------|
A|-----------------------------------------------|
E|-----------------------------------------------|

[Chorus] 

e|-----------------------------------------------|
B|-----------------------------------------------|
G|-9-9-9-9-9-9-9-9-11-11-11-11-11-11-11-11-------|
D|-9-9-9-9-9-9-9-9-11-11-11-11-11-11-11-11-------|
A|-7-7-7-7-7-7-7-7-9--9--9--9--9--9--9--9--------|
E|-----------------------------------------------|

e|-----------------------------------------------|
B|-----------------------------------------------|
G|-6-6-------------------------------------------|
D|-6-6--6-6--7-7-7-7-7-7-7-7---------------------|
A|-4-4--6-6--7-7-7-7-7-7-7-7---------------------|
E|------4-4--5-5-5-5-5-5-5-5---------------------|

e|-----------------------------------------------|
B|-----------------------------------------------|
G|-9-9-9-9-9-9-9-9-11-11-11-11-11-11-11-11-------|
D|-9-9-9-9-9-9-9-9-11-11-11-11-11-11-11-11-------|
A|-7-7-7-7-7-7-7-7-9--9--9--9--9--9--9--9--------|
E|-----------------------------------------------|

e|-----------------------------------------------|
B|-----------------------------------------------|
G|-6-6-------------------------------------------|
D|-6-6--6-6--7-----------------------------------|
A|-4-4--6-6--7-----------------------------------|
E|------4-4--5-----------------------------------|

[Verse]

e|---------------------------------------------|
B|---------------------------------------------|
G|---------------------------------------------| x2
D|---------------------------------------------|
A|---------------------------------------------|
E|-0-0-2-4---0-0-0-2-4---0-0-2-4---0-0-0-2-4---|

e|---------------------------------------------|
B|---------------------------------------------|
G|---------------------------------------------| 
D|-6-6-6-6-7-7-7-7-----------------------------|
A|-6-6-6-6-7-7-7-7-----------------------------|
E|-4-4-4-4-5-5-5-5-----------------------------|

e|---------------------------------------------|
B|---------------------------------------------|
G|---------------------------------------------| x2
D|---------------------------------------------|
A|---------------------------------------------|
E|-0-0-2-4---0-0-0-2-4---0-0-2-4---0-0-0-2-4---|


e|---------------------------------------------|
B|---------------------------------------------|
G|---------------------------------------------| 
D|-6-6-6-6-7-7-7-7-----------------------------|
A|-6-6-6-6-7-7-7-7-----------------------------|
E|-4-4-4-4-5-5-5-5-----------------------------|

e|---------------------------------------------|
B|---------------------------------------------|
G|---------------------------------------------| x2
D|---------------------------------------------|
A|---------------------------------------------|
E|-0-0-2-4---0-0-0-2-4---0-0-2-4---0-0-0-2-4---|

e|---------------------------------------------|
B|---------------------------------------------|
G|---------------------------------------------| 
D|-6-6-6-6-7-7-7-7-----------------------------|
A|-6-6-6-6-7-7-7-7-----------------------------|
E|-4-4-4-4-5-5-5-5-----------------------------|

e|---------------------------------------------|
B|---------------------------------------------|
G|---------------------------------------------| x2
D|---------------------------------------------|
A|---------------------------------------------|
E|-0-0-2-4---0-0-0-2-4---0-0-2-4---0-0-0-2-4---|


e|---------------------------------------------|
B|---------------------------------------------|
G|---------------------------------------------| 
D|-6-6-6-6-7-7-7-7-----------------------------|
A|-6-6-6-6-7-7-7-7-----------------------------|
E|-4-4-4-4-5-5-5-5-----------------------------|

[Pre-Chorus]

e|-----------------------------------------------|
B|-----------------------------------------------|
G|-6~-8/11-11/13-13~--16-16-14-13-16-16-14-13-6~-|
D|-----------------------------------------------|
A|-----------------------------------------------|
E|-----------------------------------------------|

e|-----------------------------------------------|
B|-----------------------------------------------|
G|-6~-8/11-11/13-13~--9~-13-11~------------------|
D|-----------------------------------------------|
A|-----------------------------------------------|
E|-----------------------------------------------|

[Chorus]

e|-----------------------------------------------|
B|-----------------------------------------------|
G|-----------------------------------------------|
D|-----------------------------------------------|
A|-----------------------------------------------|
E|-----------------------------------------------|
 "do you got a car do you got a set of keys?"

e|-----------------------------------------------|
B|-----------------------------------------------|
G|--------6--------------------------------------|
D|--------6-6-7-7-7-7-7-7-7-7--------------------|
A|--------4-6-7-7-7-7-7-7-7-7--------------------|
E|----------4-5-5-5-5-5-5-5-5--------------------|
 "tell me where..."

e|-----------------------------------------------|
B|-----------------------------------------------|
G|-9-9-9-9-9-9-9-9-11-11-11-11-11-11-11-11-------|
D|-9-9-9-9-9-9-9-9-11-11-11-11-11-11-11-11-------|
A|-7-7-7-7-7-7-7-7-9--9--9--9--9--9--9--9--------|
E|-----------------------------------------------|

e|-----------------------------------------------|
B|-----------------------------------------------|
G|-6-6-------------------------------------------|
D|-6-6--6-6--7-7-7-7-7-7-7-7---------------------|
A|-4-4--6-6--7-7-7-7-7-7-7-7---------------------|
E|------4-4--5-5-5-5-5-5-5-5---------------------|

[Verse]

e|-----------------------------------------------|
B|-----------------------------------------------|
G|-6-6-6-6-6-6-6-6-------------------------------|
D|-6-6-6-6-6-6-6-6-6-6-6-6-6-6-6-6---------------|
A|-4-4-4-4-4-4-4-4-6-6-6-6-6-6-6-6---------------|
E|-----------------4-4-4-4-4-4-4-4---------------|
 "West end driveway...."

e|-----------------------------------------------|
B|-----------------------------------------------|
G|-6-6-6-6-4-4-4-4-2-2-2-2-2-2-2-2---------------|
D|-6-6-6-6-4-4-4-4-2-2-2-2-2-2-2-2---------------|
A|-4-4-4-4-2-2-2-2-0-0-0-0-0-0-0-0---------------|
E|-----------------------------------------------|
 "Lift this curse of being seventeen"

e|-----------------------------------------------|
B|-----------------------------------------------|
G|-6-6-6-6-6-6-6-6-------------------------------|
D|-6-6-6-6-6-6-6-6-6-6-6-6-6-6-6-6---------------|
A|-4-4-4-4-4-4-4-4-6-6-6-6-6-6-6-6---------------|
E|-----------------4-4-4-4-4-4-4-4---------------|
 "Gilman smoke house..."

e|-----------------------------------------------|
B|-----------------------------------------------|
G|-6-6-6-6---------------------------------------|
D|-6-6-6-6-6-6-7---------------------------------|
A|-4-4-4-4-6-6-7---------------------------------|
E|---------4-4-5---------------------------------|
 "Anywhere is fine if we run free"

[Pre-Chorus] ACOUSTIC {strum):
e|-----------------------------------------------|
B|-----------------------------------------------|
G|-6-------6-------------------------------------|
D|-6---4---6---6---7-----------------------------|
A|-4---4---4---6---7-----------------------------|
E|-----2-------4---5-----------------------------|

[Chorus]

e|-----------------------------------------------|
B|-----------------------------------------------|
G|-9-9-9-9-9-9-9-9-11-11-11-11-11-11-11-11-------|
D|-9-9-9-9-9-9-9-9-11-11-11-11-11-11-11-11-------|
A|-7-7-7-7-7-7-7-7-9--9--9--9--9--9--9--9--------|
E|-----------------------------------------------|

e|-----------------------------------------------|
B|-----------------------------------------------|
G|-6-6-------------------------------------------|
D|-6-6--6-6--7-7-7-7-7-7-7-7---------------------|
A|-4-4--6-6--7-7-7-7-7-7-7-7---------------------|
E|------4-4--5-5-5-5-5-5-5-5---------------------|

e|-----------------------------------------------|
B|-----------------------------------------------|
G|-9-9-9-9-9-9-9-9-11-11-11-11-11-11-11-11-------|
D|-9-9-9-9-9-9-9-9-11-11-11-11-11-11-11-11-------|
A|-7-7-7-7-7-7-7-7-9--9--9--9--9--9--9--9--------|
E|-----------------------------------------------|

e|-----------------------------------------------|
B|-----------------------------------------------|
G|-6-6-------------------------------------------|
D|-6-6--6-6--7-7-7-7-7-7-7-7---------------------|
A|-4-4--6-6--7-7-7-7-7-7-7-7---------------------|
E|------4-4--5-5-5-5-5-5-5-5---------------------|

e|-----------------------------------------------|
B|-----------------------------------------------|
G|-9-9-9-9-9-9-9-9-11-11-11-11-11-11-11-11-------|
D|-9-9-9-9-9-9-9-9-11-11-11-11-11-11-11-11-------|
A|-7-7-7-7-7-7-7-7-9--9--9--9--9--9--9--9--------|
E|-----------------------------------------------|

e|-----------------------------------------------|
B|-----------------------------------------------|
G|-6-6-------------------------------------------|
D|-6-6--6-6--7-7-7-7-7-7-7-7---------------------|
A|-4-4--6-6--7-7-7-7-7-7-7-7---------------------|
E|------4-4--5-5-5-5-5-5-5-5---------------------|

[Outro]

e|-----------------------------------------------|
B|-----------------------------------------------|
G|-9~-9------------------------------------------|
D|-9~-9------------------------------------------|
A|-7~-7------------------------------------------|
E|-----------------------------------------------|
"Do you got a car?"


/ - slide into next note
~ - vibrato

            
            
Suggest correction
Creating personal tab
Creating personal tab
You can edit any tab online and save it as your Personal.

You can edit, replace or remove any tab part or add personal notes – all changes will be seen only by you.

Personal tabs can be accessed anytime from any device, even offline.
Learn more »
comments
print report bad tab
guest
You may want to rate the tab now too:
select rating
Wanna post a correction for this tab? Suggest correction