Oops, an error
Loading. Please wait.

Lose It Bass Tab

235 views 33 this week
no commentswrite comment
1 2 3 4 5
3 more votes to show rating
add to favorites
launch autoscroll
font size
0
reset
guitar tuner
Autoscroll
slow
fast
+/-
esc
set tempo
stop
Help us to improve Ultimate-Guitar.com Take our survey!
×
Author
Difficulty
novice
About this tab version
Lose It is a pretty simple song, and hopefully, this tab has cleared things up. The bass line is very repetitive, rythm-wise. Sometimes the notes are a bit of a surprise, but all in all, it's not that complicated. If you have trouble figuring out the order, listen to the song a couple more times. Was this info helpful? Yes No
[Intro]

G|----------------|
D|----------------|
A|----------------| x4
E|1~----1-1~------|

[Verse]

G|---------------------------------------------------------------|
D|---------------------------------------------------------------|
A|-------------------------------1~----1-1~------3~----3-3~------| X2
E|1~----1-1~------1~---1-1~--------------------------------------|


[Prechorus]

G|---------------------------------------------------------------------------|
D|---------------------------------------------------------------------------|
A|1~----1-1~------3~----3-3~----------------------1~----1-1~-----------------| 
E|-------------------------------1~----1-1~----------------------------------|

G|---------------------------------------------------------------------------|
D|---------------------------------------------------------------------------|
A|1~----1-1~------3~----3-3~-----0~----0-0~-----0~----0-0~-------------------|
E|---------------------------------------------------------------------------|


[Chorus]

G|----------------------------------------------------------------|
D|----------------------------------------------------------------|
A|5~----5-5~------1~----1-1~----------------------0~----0-0~------|
E|--------------------------------1~----1-1~----------------------|
 end of chorus only play this part: 
G|---------------------------|
D|---------------------------|
A|5~----5-5~------1~----1-1~-|
E|---------------------------|


[Outro Chorus]

G|---------------------------------------------------------------------------|
D|---------------------------------------------------------------------------|
A|----------------1~----1-1~--------------------1~----1-1~-------------------|
E|1~----1-1~--------------------1~----1-1~-----------------------------------|

[Verse]

G|---------------------------------------------------------------|
D|---------------------------------------------------------------|
A|-------------------------------1~----1-1~------3~----3-3~------| X2
E|1~----1-1~------1~---1-1~--------------------------------------|


[Prechorus]

G|---------------------------------------------------------------------------|
D|---------------------------------------------------------------------------|
A|1~----1-1~------3~----3-3~----------------------1~----1-1~-----------------| 
E|-------------------------------1~----1-1~----------------------------------|

G|---------------------------------------------------------------------------|
D|---------------------------------------------------------------------------|
A|1~----1-1~------3~----3-3~-----0~----0-0~-----0~----0-0~-------------------|
E|---------------------------------------------------------------------------|


[Chorus]

G|----------------------------------------------------------------|
D|----------------------------------------------------------------|
A|5~----5-5~------1~----1-1~----------------------0~----0-0~------|
E|--------------------------------1~----1-1~----------------------|
 end of chorus only play this part: 
G|---------------------------|
D|---------------------------|
A|5~----5-5~------1~----1-1~-|
E|---------------------------|

[Outro Chorus]

G|---------------------------------------------------------------------------|
D|---------------------------------------------------------------------------|
A|----------------1~----1-1~--------------------1~----1-1~-------------------|
E|1~----1-1~--------------------1~----1-1~-----------------------------------|

[Bridge]
the F's (E string 1st fret) are not on the 1st count here!
G|---------------------------------------------------------------------------|
D|---------------------------------------------------------------------------|
A|1~----1-1~------1~----1-1~-------------------------------------------------|
E|----------------------------------------------1-1~------------1-1~---------|

G|---------------------------------------------------------------------------|
D|---------------------------------------------------------------------------|
A|1~----1-1~------1~----1-1~---------5~----5-5~-------5~----5-5~-------------|
E|---------------------------------------------------------------------------|

[Doo doo part]

G|---------------------------------------------------------------------------|
D|---------------------------------------------------------------------------|
A|----------------1~----1-1~--------------------1~----1-1~-------------------| repeat until next chorus 
E|1~----1-1~--------------------1~----1-1~-----------------------------------| 

-one silent chorus-

[Chorus]

G|----------------------------------------------------------------|
D|----------------------------------------------------------------|
A|5~----5-5~------1~----1-1~----------------------0~----0-0~------|
E|--------------------------------1~----1-1~----------------------|
 end of chorus only play this part: 
G|---------------------------|
D|---------------------------|
A|5~----5-5~------1~----1-1~-|
E|---------------------------|

[Outro]

G|---------------------------------------------------------------------------|
D|---------------------------------------------------------------------------|
A|----------------1~----1-1~--------------------1~----1-1~-------------------|
E|1~----1-1~--------------------1~----1-1~-----------------------1~----------|

I use ~ as "let ring", not tremolo! 
Suggest correction
Give kudos to tab author, rate the tab!
1 2 3 4 5
comments
print report bad tab
guest
You may want to rate the tab now too:
select rating
Wanna post a correction for this tab? Suggest correction