Oops, an error
Loading. Please wait.

Palm Trees Tab

475 views 69 this week
1 commentread comment
1 2 3 4 5
3 more votes to show rating
add to favorites
launch autoscroll
font size
0
reset
how to read this tab
guitar tuner
Autoscroll
slow
fast
+/-
esc
set tempo
stop
Help us to improve Ultimate-Guitar.com Take our survey!
×
Author
Difficulty
intermediate
[Intro]
                                                                    __________________   _____________________
                                                                   |1.                  |2.
e|-----------------------------------------------------------------|--------------------|--------------------|
B|-----------------------------------------------------------------|--------------------|--------------------|
G|---------------------11-X--11--X--11-11-11-11-11---9-9-9-9-9-X-X-|--------------------|--------------------|
D|-12-12-12-12-12-X-X----------------------------------------------|-9-X-9-X-9-9-9-9-9--|-X-9----------------|
A|---------------------9--X--9---X--9--9--9--9--9----7-7-7-7-7-X-X-|--------------------|-X-9----------------|
E|-10-10-10-10-10-X-X----------------------------------------------|-7-X-7-X-7-7-7-7-7--|-X-7----------------|

[Chorus]

e|-----------------------------------------------------------------------------------|
B|-----------------------------------------------------------------------------------|
G|-------------------------11-11-11-11-11-11-11-11--9-9-9-9-9-9-9-9------------------|
D|-12-12-12-12-12-12-12-12-11-11-11-11-11-11-11-11--9-9-9-9-9-9-9-9--9-9-9-9-9-9-9-9-|
A|-12-12-12-12-12-12-12-12-9--9--9--9--9--9--9--9---7-7-7-7-7-7-7-7--9-9-9-9-9-9-9-9-|
E|-10-10-10-10-10-10-10-10-------------------------------------------7-7-7-7-7-7-7-7-|(x2)

[Verse 1]
(First note is between 1 and 2 times)

e|----9----------9----------9---------9----|
B|------10---------10--------10---------10-|
G|-11---------11---------9----------8------|
D|-----------------------------------------|
A|-----------------------------------------|
E|-----------------------------------------|(x2)


[Pre-Chorus]
(Every chords in palm mute, except for the very last one)
                                     ___________________________________        __________________
                                    |1.                                        |2.
e|----------------------------------|------------------------------------------|-------------------|
B|----------------------------------|------------------------------------------|-------------------|
G|-7-7-7-7-7-7-7-7------------------|-9-9-9-9-9-9-9-9--11-11-11-11-11-11-11-11-|-------------------|
D|-7-7-7-7-7-7-7-7--7-7-7-7-7-7-7-7-|-9-9-9-9-9-9-9-9--11-11-11-11-11-11-11-11-|-9-9-9-9-9-9-9-9-9-|
A|-5-5-5-5-5-5-5-5--7-7-7-7-7-7-7-7-|-7-7-7-7-7-7-7-7--9--9--9--9--9--9--9--9--|-9-9-9-9-9-9-9-9-9-|
E|------------------5-5-5-5-5-5-5-5-|------------------------------------------|-7-7-7-7-7-7-7-7-7-|


[Chorus]

e|-----------------------------------------------------------------------------------|
B|-----------------------------------------------------------------------------------|
G|-------------------------11-11-11-11-11-11-11-11--9-9-9-9-9-9-9-9------------------|
D|-12-12-12-12-12-12-12-12-11-11-11-11-11-11-11-11--9-9-9-9-9-9-9-9--9-9-9-9-9-9-9-9-|
A|-12-12-12-12-12-12-12-12-9--9--9--9--9--9--9--9---7-7-7-7-7-7-7-7--9-9-9-9-9-9-9-9-|
E|-10-10-10-10-10-10-10-10-------------------------------------------7-7-7-7-7-7-7-7-|(x4)


[Pre-Verse 2] 
(same as Verse 1)

e|----9----------9----------9---------9----|
B|------10---------10--------10---------10-|
G|-11---------11---------9----------8------|
D|-----------------------------------------|
A|-----------------------------------------|
E|-----------------------------------------|(x2)


[Verse 2]

Guitar 1
                                              (This part is in couter-time)
e|---------------------------------|---------------------------|
B|---------------------------------|---------------------------|
G|-7-7---11-11--11---9-9-----------|--14-14--18-18--16-16--8-8-|
D|-7-7---11-11--11---9-9---9-9---9-|--16-16--19-19--18-18--9-9-|
A|-5-5---9--9---9----7-7---9-9---9-|---------------------------|
E|-------------------------7-7---7-|---------------------------|

Guitar 2

e|---------------------------------|---------------------------------|
B|---------------------------------|---------------------------------|
G|-7-7---11-11--11---9-9-----------|-7-7---11-11--11---9-9-----------|
D|-7-7---11-11--11---9-9---9-9---9-|-7-7---11-11--11---9-9---9-9---9-|
A|-5-5---9--9---9----7-7---9-9---9-|-5-5---9--9---9----7-7---9-9---9-|
E|-------------------------7-7---7-|-------------------------7-7---7-|

[Pre-Chorus]
(Every chords in palm mute, except for the very last one)

                                     ___________________________________        __________________
                                    |1.                                        |2.
e|----------------------------------|------------------------------------------|-------------------|
B|----------------------------------|------------------------------------------|-------------------|
G|-7-7-7-7-7-7-7-7------------------|-9-9-9-9-9-9-9-9--11-11-11-11-11-11-11-11-|-------------------|
D|-7-7-7-7-7-7-7-7--7-7-7-7-7-7-7-7-|-9-9-9-9-9-9-9-9--11-11-11-11-11-11-11-11-|-9-9-9-9-9-9-9-9-9-|
A|-5-5-5-5-5-5-5-5--7-7-7-7-7-7-7-7-|-7-7-7-7-7-7-7-7--9--9--9--9--9--9--9--9--|-9-9-9-9-9-9-9-9-9-|
E|------------------5-5-5-5-5-5-5-5-|------------------------------------------|-7-7-7-7-7-7-7-7-7-|


[Chorus]
                                                              _______________________ _______
                                                                                 1-3.|4.
e|-----------------------------------------------------------------------------------|-----------------|
B|-----------------------------------------------------------------------------------|-----------------|
G|-------------------------11-11-11-11-11-11-11-11--9-9-9-9-9-9-9-9------------------|-----------------|
D|-12-12-12-12-12-12-12-12-11-11-11-11-11-11-11-11--9-9-9-9-9-9-9-9--9-9-9-9-9-9-9-9-|-4---------------|
A|-12-12-12-12-12-12-12-12-9--9--9--9--9--9--9--9---7-7-7-7-7-7-7-7--9-9-9-9-9-9-9-9-|-4---------------|
E|-10-10-10-10-10-10-10-10-------------------------------------------7-7-7-7-7-7-7-7-|-2---7/0(Slide)--|


(Bass Part, you can play like Verse 1 if you want)

[Crazy Part]

Guitar 1

e|--------------------------------------------------------------------|
B|--------------------------------------------------------------------|
G|-----------------------------------9-9-9-9-9-9-9-9------------------|
D|-4-4-4-4-4-4-4-4--7-7-7-7-7-7-7-7--9-9-9-9-9-9-9-9--9-9-9-9-9-9-9-9-|
A|-4-4-4-4-4-4-4-4--7-7-7-7-7-7-7-7--7-7-7-7-7-7-7-7--9-9-9-9-9-9-9-9-|
E|-2-2-2-2-2-2-2-2--5-5-5-5-5-5-5-5-------------------7-7-7-7-7-7-7-7-|(x2) (Then switch 
to chorus


[Chorus]

e|-----------------------------------------------------------------------------------|
B|-----------------------------------------------------------------------------------|
G|-------------------------11-11-11-11-11-11-11-11--9-9-9-9-9-9-9-9------------------|
D|-12-12-12-12-12-12-12-12-11-11-11-11-11-11-11-11--9-9-9-9-9-9-9-9--9-9-9-9-9-9-9-9-|
A|-12-12-12-12-12-12-12-12-9--9--9--9--9--9--9--9---7-7-7-7-7-7-7-7--9-9-9-9-9-9-9-9-|
E|-10-10-10-10-10-10-10-10-------------------------------------------7-7-7-7-7-7-7-7-|(x2)

Guitar 2

e|--------------------------------------------------------------------|
B|--------------------------------------------------------------------|
G|-----------------------------------9-9-9-9-9-9-9-9------------------|
D|-4-4-4-4-4-4-4-4--7-7-7-7-7-7-7-7--9-9-9-9-9-9-9-9--9-9-9-9-9-9-9-9-|
A|-4-4-4-4-4-4-4-4--7-7-7-7-7-7-7-7--7-7-7-7-7-7-7-7--9-9-9-9-9-9-9-9-|
E|-2-2-2-2-2-2-2-2--5-5-5-5-5-5-5-5-------------------7-7-7-7-7-7-7-7-|(x4)


Final Part : (Each hit is on the time, except for the third where you just play two 
times instead of one)

e|--------------|
B|--------------|
G|--------------|
D|-4--4--4-4--4-|
A|-4--4--4-4--4-|
E|-2--2--2-2--2-|(x2)



************************************

| /  Slide up
| X  dead note

************************************
Suggest correction
Give kudos to tab author, rate the tab!
1 2 3 4 5
comments
print report bad tab
1 comment total.
0 reply
yann.steiger 37 Nov 13, 2016 10:16 AM

Not sure about the "counter-time part" of the second verse, but I can't manage to figure it out so it sounds great...If you had, please edit it so it would be 100% perfect ;) !

guest
You may want to rate the tab now too:
select rating
Wanna post a correction for this tab? Suggest correction