Oops, an error
Loading. Please wait.

Turn Up bass

by Swmrs
913 views 21 this week
no commentswrite comment
1 2 3 4 5
1 last vote to show rating
add to favorites
×
Save as Personal and add changes to this tab that will be seen only by you. Learn more ›
×
You can save this tab as Personal to edit and correct it or add notes. All changes will be seen only by you. Learn more »
launch autoscroll
font size
0
reset
guitar tuner
edit
Autoscroll
slow
fast
+/-
esc
set tempo
stop
Author
Difficulty
[Intro] "I wanna know, wanna know..."

G|---------------------------------------------------------------------------|
D|---------------------------------------------------------------------------|
A|---------------------------------------------------------------------------|
E|---------------------------------------------------------------------------|

(Rest until Chorus)

[Chorus] "So turn the music up louder, girl"...

G|---------------------------------------------------------------------------|
D|----------------------------5--5-------------------------------------------|
A|----------------4--4--7--7--------7--7--4--4--7--7--5--5--4--4--------4--4-|
E|----5--5--7--7--------------------------------------------------7--7-------|

      "Before I leave you"...
G|---------------------------------------------------------------------------|
D|--3-----3----------------------------5--5----------------------------------|
A|------------------------4--4--7--7--------7--7--4--4--7--7--5--5--4--4-----|
E|------------5--5--7--7--------------------------------------------------7--|

               "So turn the music up"...
G|---------------------------------------|
D|-----------3-----3---------------------| (Rest for 2 bars)
A|-----4--4------------------------------|
E|--7------------------------------------|

[Verse]
                                                 "Going down, going down the road"...
G|---------------------------------------------------------------------------|
D|---------------------------------------------------------------------------|
A|---------------------------------------------------------------------------|
E|--5---5-5-----5---5-5-----5---5-5-----5---5-5-----5---5-5-----5---5-5------|

                            "Live for the moment"... 
G|---------------------------------------------------------------------------|
D|---------------------------------------------------------------------------|
A|--4---4-4-----5---5-5-----------------------------4---4-4-----5---5-5------|
E|--------------------------5---5-5-----5---5-5------------------------------|

  "And we scream out to the"...                   "You said, come along"...
G|---------------------------------------------------------------------------|
D|--7---7-7-----7---7-7-----6---6-6-----4-----------7---7-7----7---7-7-------|
A|------------------------------------------7-7------------------------------|
E|---------------------------------------------------------------------------|
      "Ain't too far"...
G|---------------------------------------------------------------------------|
D|--6---6-6------------------------------------------------------------------|
A|--------------5------------------------------------------------------------|
E|---------------------------------------------------------------------------|

[Chorus 2] "So turn the music up louder, girl"...

G|---------------------------------------------------------------------------|
D|----------------------------5--5-------------------------------------------|
A|----------------4--4--7--7--------7--7--4--4--7--7--5--5--4--4--------4--4-|
E|----5--5--7--7--------------------------------------------------7--7-------|

       "Before I leave you"...
G|---------------------------------------------------------------------------|
D|--3-----3----------------------------5--5----------------------------------|
A|------------------------4--4--7--7--------7--7--4--4--7--7--5--5--4--4-----|
E|------------5--5--7--7--------------------------------------------------7--|

                "So turn the music up, turn the music up"...
G|--------------------------------------|
D|-----------------------7-----9--------|
A|-----4--4--5-----8--------------------|
E|--7-----------------------------------|



[Bridge/Guitar Solo]

G|---------------------------------------------------------------------------|
D|--9--9-9-9-9-9-9----9--9-9-9-9-9-9-----------------------------------------|
A|--------------------------------------8-8-8-8-8-8-8-8---8-8-8-8-8-8-8-8----|
E|---------------------------------------------------------------------------|

G|---------------------------------------------------------------------------|
D|---------------------------------------------------------------------------|
A|--7-7-7-7-7-7-7-7---7-7-7-7-7-7-7-7---6-6-6-6-6-6-6-6---6-6-6-6-6-6-6-6----|
E|---------------------------------------------------------------------------|

G|---------------------------------------------------------------------------|
D|---------------------------------------------------------------------------|
A|--5-5-5-5-5-5-5-5---5-5-5-5-5-5-5-5---5-5-5-5-5-5-5-5---5-5-5-5-5-5-5-5----|
E|---------------------------------------------------------------------------|

G|--------------------------------------|
D|--------------------------------------|        (Drums drop out)
A|--5-5-5-5-5-5-5-5---5-5-5-5-5-5-5-5---|
E|--------------------------------------|

G|---------------------------------------------------------------------------|
D|--7---7-7-----7---7-7-----6---6-6-----4-----------7---7-7-----7---7-7------|
A|------------------------------------------7-7------------------------------|
E|---------------------------------------------------------------------------|

G|---------------------|
D|--6---6-6------------|
A|--------------5------|
E|---------------------|

[Chorus] "So turn the music up louder, girl"...

G|---------------------------------------------------------------------------|
D|----------------------------5--5-------------------------------------------|
A|----------------4--4--7--7--------7--7--4--4--7--7--5--5--4--4--------4--4-|
E|----5--5--7--7--------------------------------------------------7--7-------|

       "Before I leave you for"...
G|---------------------------------------------------------------------------|
D|--3-----3----------------------------5--5----------------------------------|
A|------------------------4--4--7--7--------7--7--4--4--7--7--5--5--4--4-----|
E|------------5--5--7--7--------------------------------------------------7--|

                "So turn the music up louder"...
G|---------------------------------------------------------------------------|
D|-----------3-----3------------------------------5--5-----------------------|
A|-----4--4---------------------------4--4--7--7--------7--7--4--4--7--7--5--|
E|--7---------------------5--5--7--7-----------------------------------------|

                                "When we're driving up"...
G|---------------------------------------------------------------------------|
D|--------------------------3-----3-----------------------------5--5---------|
A|--5--5--4--4--------4--4--------------------------4--4--7--7--------7--7---|
E|--------------7--7--------------------5--5--7--7---------------------------|

                                          "So turn the music up..."
G|---------------------------------------------------------------------------|
D|------------------------------------------------7-----9-----12-----15------|
A|--4--4--7--7--5--5--4--4--------4--4--5-----8------------------------------|
E|-------------------------7--7----------------------------------------------|

        "Turn the music up"...           "I wanna know, wanna know"...
G|--14-----16------|
D|-----------------|  (Rest to the end)
A|-----------------| 
E|-----------------|






************************************

| x   Dead note
| g   Grace note
| (n) Ghost note
| h   Hammer-on
| p   Pull-off
| r   Release
| >   Accented note
| t   Tapping
| b   Bend
| br  Bend release
| pb  Pre-bend
| pbr Pre-bend release
| /   Slide up
| \   Slide down
| ~   Vibrato
| s   Slap
| P   Pop
| PM  Palm mute
| TR  Trill
| N   Tremolo

************************************

            
            
Suggest correction
Creating personal tab
Creating personal tab
You can edit any tab online and save it as your Personal.

You can edit, replace or remove any tab part or add personal notes – all changes will be seen only by you.

Personal tabs can be accessed anytime from any device, even offline.
Learn more »
Give kudos to tab author, rate the tab!
1 2 3 4 5
comments
print report bad tab
guest
You may want to rate the tab now too:
select rating
Wanna post a correction for this tab? Suggest correction