Oops, an error
Loading. Please wait.

Turn Up chords

version 1
version 1

Whole song

  • Again, got the chords from cole and now im sharing... Show more
by Swmrs
5,794 views 63 this week
1 commentread comment
1 2 3 4 5
x 17
add to favorites
×
Save as Personal and add changes to this tab that will be seen only by you. Learn more ›
×
You can save this tab as Personal to edit and correct it or add notes. All changes will be seen only by you. Learn more »
launch autoscroll
font size
0
reset
transpose
0
reset
display chords
guitar tuner
edit
Autoscroll
slow
fast
+/-
esc
set tempo
stop
Author
Strumming
There is no strumming pattern for this song yet. and get +5 IQ
Turn up - SWMRS 


[Verse 1]

                                         C#m             D
I wanna know, wanna know how to leave my soul behind for you to take
A                                                           C#m  
It's getting late and don't you hate it how the clock moves fast 
                       D
when your heart's been racing
A
And I fell fast like lead from the sky
C#m                              D 
The minute you told me 'bout the music you like
A                                   C#m                   D
You said "come along get in my car, I know a place and it ain't too far"


[Chorus]

                  A
Turn the music up louder, girl
C#m                D            Dm 
I know we only got an hour, girl
                         A
Before I leave you for a long, long time
C#m                D 
And I really wanna make you mine
Dm                   A
So turn the music up louder, girl


[Verse 2]

A                                  
Going down, going down the road 
          C#m                     D
where the moon stares down on the stories told
A
Live for the moment go ahead and hold it 
C#m                   D
tight to the memories stuck in your soul
    A
And we scream out to the ears in the sky
C#m                   D 
Loudest beasts in the wild tonight
A
Drive 'round town til the time's are up
C#m                      D
I don't wanna go cause I haven't had enough


[Chorus]

                  A
Turn the music up louder, girl
C#m                D            Dm 
I know we only got an hour, girl
                         A
Before I leave you for a long, long time
C#m                D             Dm
And I really wanna make you mine

So turn the music up

Turn the music up, louder girl


[Solo]

e|--------------------------------------------------------------------------------|
B|--7--9-10---7--9-10---6--9-10---6--9-10------9-10------9-10------9-10------9-10-|
G|------------------------------------------9---------9---------8---------8-------|
D|--------------------------------------------------------------------------------|
A|--------------------------------------------------------------------------------|
E|--------------------------------------------------------------------------------|

e|--------------------------10-9-12-10-14-12-16-14--------------------------------|
B|----9--12-10-9-10-13------------------------------------------------------------|
G|-7------------------------------------------------------------------------------|
D|--------------------------------------------------------------------------------|
A|--------------------------------------------------------------------------------|
E|--------------------------------------------------------------------------------|


[Interlude]

A C#m D (x2)


[Chorus]

                  A
Turn the music up louder, girl
C#m                D            Dm 
I know we only got an hour, girl
                         A
Before I leave you for a long, long time
C#m                D 
And I really wanna make you mine
Dm                   A
So turn the music up louder, girl
C#m                          D               Dm 
I like the way you move your shoulders, girl
                          A
When we're driving up the west coast, girl
C#m                D            Dm
So trap me in this moment, girl

Turn the music up

Turn the music up

Turn the music up

Turn the music up


[Outro]

A                                         C#m             D
I wanna know, wanna know, how to leave my soul behind for you to take

            
            
Suggest correction
Creating personal tab
Creating personal tab
You can edit any tab online and save it as your Personal.

You can edit, replace or remove any tab part or add personal notes – all changes will be seen only by you.

Personal tabs can be accessed anytime from any device, even offline.
Learn more »
comments
print report bad tab
1 comment total.
0 reply
LiveRur 804 Feb 21, 2016 10:45 AM

I suggest to play the A chord at the fifth fret!! Enjoy it :D

guest
You may want to rate the tab now too:
select rating
Wanna post a correction for this tab? Suggest correction