Oops, an error
Loading. Please wait.

Seriously Mysterious Tab

370 views 33 this week
4 commentsread comments
1 2 3 4 5
3 more votes to show rating
add to favorites
launch autoscroll
font size
0
reset
how to read this tab
guitar tuner
Autoscroll
slow
fast
+/-
esc
set tempo
stop
Help us to improve Ultimate-Guitar.com Take our survey!
×
Author
Difficulty
Tuning
intermediate
C G C F A D
Tabbed by: Joshua Garcia (joshuag523@aol.com)

Tabs for the song: Seriously Mysterious (Acoustic) by The Sword
Please rate and let me know if you have any corrections. Thank you.


* NOTE - This song has a custom tuning to it. The tuning is between Drop C#
and Drop C. So it would be Drop C# a quarter step down or Drop C a quarter
step up on all strings. *


[Intro]
Guitar 1/2:
||------------------------------|------------------------------|
||------------------------------|------------------------------|
||----------0-------------------|----------0-------------------|
||--0h2--------2--0h2-----2-----|--0h2--------2--0h2-----2-----|
||------------------------------|------------------------------|
||-------2-------------2-----2--|-------2-------------2-----2--|


||------------------------------|------------------------------|
||------------------------------|------------------------------|
||----------0-------------------|----------0-------------------|
||--0h2--------2--0h2-----2-----|--0h2--------2--0h2-----2-----|
||------------------------------|------------------------------|
||-------2-------------2-----2--|-------2-------------2-----2--|



[Verse]
Guitar 1/2:
||------------------------------|------------------------------|
||------------------------------|------------------------------|
||----------0-------------------|----------0-------------------|
||--0h2--------2--0h2-----2-----|--0h2--------2--0h2-----2-----|
||------------------------------|------------------------------|
||-------2-------------2-----2--|-------2-------------2-----2--|


||------------------------------|------------------------------|
||----------3-------------3-----|------------------------------|
||--0h2--------2--0h2--------2--|----------0-------------------|
||-------0-------------0--------|--0h2--------2--0h2-----2-----|
||------------------------------|------------------------------|
||------------------------------|-------2-------------2-----2--|


||------------------------------|------------------------------|
||------------------------------|----------3-------------3-----|
||----------0-------------------|--0h2--------2--0h2--------2--|
||--0h2--------2--0h2-----2-----|-------0-------------0--------|
||------------------------------|------------------------------|
||-------2-------------2-----2--|------------------------------|


||------------------------------|------------------------------|
||------------------------------|------------------------------|
||----------2-------------2-----|----------0-------------------|
||-------2-----2-------2--------|--0h2--------2--0h2-----2-----|
||--3p0-----------3p0-----------|------------------------------|
||--------------------------5b--|-------2-------------2-----2--|



[Pre-Chorus]
Guitar 1/2:
||----------------------------------------------------------|
||----------------------------------------------------------|
||----------4-------------4-------------4-------------4-----|
||-------4-----4-------4-----4-------4-----4-------4--------|
||--0h2-----------0h2-----------0h2-----------0h2-----------|
||------------------------------------------------------5b--|


||----------------------------------------------------------|
||----------------------------------------------------------|
||----------------------------------------------------------|
||----------7-------------7-------------7-------------7-----|
||-------7-----7-------7-----7-------7-----7-------7--------|
||--5h7-----------5h7-----------5h7-----------5h7-------5b--|


||------------------------------|------------------------------|
||------------------------------|------------------------------|
||----------0-------------------|----------0-------------------|
||--0h2--------2--0h2-----2-----|--0h2--------2--0h2-----2-----|
||------------------------------|------------------------------|
||-------2-------------2-----2--|-------2-------------2-----2--|



[Chorus]
Guitar 1:
||------------------------------|------------------------------|
||------------------------------|----------3-------------3-----|
||----------0-------------------|--0h2--------2--0h2--------2--|
||--0h2--------2--0h2-----2-----|-------0-------------0--------|
||------------------------------|------------------------------|
||-------2-------------2-----2--|------------------------------|


||------------------------------|------------------------------|
||------------------------------|------------------------------|
||----------0-------------------|----------2-------------2-----|
||--0h2--------2--0h2-----2-----|-------2-----2-------2-----2--|
||------------------------------|--3p0-----------3p0-----------|
||-------2-------------2-----2--|------------------------------|


||------------------------------|------------------------------|
||------------------------------|----------3-------------3-----|
||----------0-------------------|--0h2--------2--0h2--------2--|
||--0h2--------2--0h2-----2-----|-------0-------------0--------|
||------------------------------|------------------------------|
||-------2-------------2-----2--|------------------------------|


||------------------------------|------------------------------|
||------------------------------|------------------------------|
||------------------------------|------------------------------|
||---------0--------------0-----|----------7-------------7-----|
||----2-2-----2------2-2-----2--|-------7-----7-------7--------|
||--5--------------5------------|--5h7-----------5h7-------5b--|


Guitar 2:
||--0~--------2~--------0~------------|
||--0~--------3~--------0~--------2~--|
||--0~--------2~--------0~--------2~--|
||--2~--------0~--------2~--------2~--|
||--2~--------0~--------2~--------0~--|
||--2~--------0~--------2~------------|


||--0~--------2~----------------------|
||--0~--------3~------------------2~--|
||--0~--------2~--------7~--------2~--|
||--2~--------0~--------5~--------2~--|
||--2~--------0~--------5~--------0~--|
||--2~--------0~--------5~------------|


Guitar 3:
||--0--0--0--0-----0-0--0--0--2--2--2--2-----2-2--2--2--|
||--0--0--0--0-----0-0--0--0--3--3--3--3-----3-3--3--3--|
||--0--0--0--0-----0-0--0--0--2--2--2--2-----2-2--2--2--|
||--2--2--2--2-----2-2--2--2--0--0--0--0-----0-0--0--0--|
||--2--2--2--2-----2-2--2--2--0--0--0--0-----0-0--0--0--|
||--2--2--2--2-----2-2--2--2--0--0--0--0-----0-0--0--0--|


||--0--0--0--0-----0-0--0--0----------------------------|
||--0--0--0--0-----0-0--0--0--2--2--2--2-----2-2--2--2--|
||--0--0--0--0-----0-0--0--0--2--2--2--2-----2-2--2--2--|
||--2--2--2--2-----2-2--2--2--2--2--2--2-----2-2--2--2--|
||--2--2--2--2-----2-2--2--2--0--0--0--0-----0-0--0--0--|
||--2--2--2--2-----2-2--2--2----------------------------|


||--0--0--0--0-----0-0--0--0--2--2--2--2-----2-2--2--2--|
||--0--0--0--0-----0-0--0--0--3--3--3--3-----3-3--3--3--|
||--0--0--0--0-----0-0--0--0--2--2--2--2-----2-2--2--2--|
||--2--2--2--2-----2-2--2--2--0--0--0--0-----0-0--0--0--|
||--2--2--2--2-----2-2--2--2--0--0--0--0-----0-0--0--0--|
||--2--2--2--2-----2-2--2--2--0--0--0--0-----0-0--0--0--|


||------------------------------------------------------|
||----------------------------2--2--2--2-----2-2--2--2--|
||--7--7--7--7-----7-7--7--7--2--2--2--2-----2-2--2--2--|
||--5--5--5--5-----5-5--5--5--2--2--2--2-----2-2--2--2--|
||--5--5--5--5-----5-5--5--5--0--0--0--0-----0-0--0--0--|
||--5--5--5--5-----5-5--5--5----------------------------|



[Pre-Verse]
Guitar 1/2:
||------------------------------|------------------------------|
||------------------------------|------------------------------|
||----------0-------------------|----------0-------------------|
||--0h2--------2--0h2-----2-----|--0h2--------2--0h2-----2-----|
||------------------------------|------------------------------|
||-------2-------------2-----2--|-------2-------------2-----2--|


||------------------------------|------------------------------|
||------------------------------|------------------------------|
||----------0-------------------|----------0-------------------|
||--0h2--------2--0h2-----2-----|--0h2--------2--0h2-----2-----|
||------------------------------|------------------------------|
||-------2-------------2-----2--|-------2-------------2-----2--|



[Verse]
Guitar 1/2:
||------------------------------|------------------------------|
||------------------------------|------------------------------|
||----------0-------------------|----------0-------------------|
||--0h2--------2--0h2-----2-----|--0h2--------2--0h2-----2-----|
||------------------------------|------------------------------|
||-------2-------------2-----2--|-------2-------------2-----2--|


||------------------------------|------------------------------|
||----------3-------------3-----|------------------------------|
||--0h2--------2--0h2--------2--|----------0-------------------|
||-------0-------------0--------|--0h2--------2--0h2-----2-----|
||------------------------------|------------------------------|
||------------------------------|-------2-------------2-----2--|


||------------------------------|------------------------------|
||------------------------------|----------3-------------3-----|
||----------0-------------------|--0h2--------2--0h2--------2--|
||--0h2--------2--0h2-----2-----|-------0-------------0--------|
||------------------------------|------------------------------|
||-------2-------------2-----2--|------------------------------|


||------------------------------|------------------------------|
||------------------------------|------------------------------|
||----------2-------------2-----|----------0-------------------|
||-------2-----2-------2--------|--0h2--------2--0h2-----2-----|
||--3p0-----------3p0-----------|------------------------------|
||--------------------------5b--|-------2-------------2-----2--|



[Pre-Chorus]
Guitar 1/2:
||----------------------------------------------------------|
||----------------------------------------------------------|
||----------4-------------4-------------4-------------4-----|
||-------4-----4-------4-----4-------4-----4-------4--------|
||--0h2-----------0h2-----------0h2-----------0h2-----------|
||------------------------------------------------------5b--|


||----------------------------------------------------------|
||----------------------------------------------------------|
||----------------------------------------------------------|
||----------7-------------7-------------7-------------7-----|
||-------7-----7-------7-----7-------7-----7-------7--------|
||--5h7-----------5h7-----------5h7-----------5h7-------5b--|


||------------------------------|------------------------------|
||------------------------------|------------------------------|
||----------0-------------------|----------0-------------------|
||--0h2--------2--0h2-----2-----|--0h2--------2--0h2-----2-----|
||------------------------------|------------------------------|
||-------2-------------2-----2--|-------2-------------2-----2--|



[Chorus]
Guitar 1:
||------------------------------|------------------------------|
||------------------------------|----------3-------------3-----|
||----------0-------------------|--0h2--------2--0h2--------2--|
||--0h2--------2--0h2-----2-----|-------0-------------0--------|
||------------------------------|------------------------------|
||-------2-------------2-----2--|------------------------------|


||------------------------------|------------------------------|
||------------------------------|------------------------------|
||----------0-------------------|----------2-------------2-----|
||--0h2--------2--0h2-----2-----|-------2-----2-------2-----2--|
||------------------------------|--3p0-----------3p0-----------|
||-------2-------------2-----2--|------------------------------|


||------------------------------|------------------------------|
||------------------------------|----------3-------------3-----|
||----------0-------------------|--0h2--------2--0h2--------2--|
||--0h2--------2--0h2-----2-----|-------0-------------0--------|
||------------------------------|------------------------------|
||-------2-------------2-----2--|------------------------------|


||------------------------------|------------------------------|
||------------------------------|------------------------------|
||------------------------------|------------------------------|
||---------0--------------0-----|----------7-------------7-----|
||----2-2-----2------2-2-----2--|-------7-----7-------7--------|
||--5--------------5------------|--5h7-----------5h7-------5b--|


Guitar 2:
||--0~--------2~--------0~------------|
||--0~--------3~--------0~--------2~--|
||--0~--------2~--------0~--------2~--|
||--2~--------0~--------2~--------2~--|
||--2~--------0~--------2~--------0~--|
||--2~--------0~--------2~------------|


||--0~--------2~----------------------|
||--0~--------3~------------------2~--|
||--0~--------2~--------7~--------2~--|
||--2~--------0~--------5~--------2~--|
||--2~--------0~--------5~--------0~--|
||--2~--------0~--------5~------------|


Guitar 3:
||--0--0--0--0-----0-0--0--0--2--2--2--2-----2-2--2--2--|
||--0--0--0--0-----0-0--0--0--3--3--3--3-----3-3--3--3--|
||--0--0--0--0-----0-0--0--0--2--2--2--2-----2-2--2--2--|
||--2--2--2--2-----2-2--2--2--0--0--0--0-----0-0--0--0--|
||--2--2--2--2-----2-2--2--2--0--0--0--0-----0-0--0--0--|
||--2--2--2--2-----2-2--2--2--0--0--0--0-----0-0--0--0--|


||--0--0--0--0-----0-0--0--0----------------------------|
||--0--0--0--0-----0-0--0--0--2--2--2--2-----2-2--2--2--|
||--0--0--0--0-----0-0--0--0--2--2--2--2-----2-2--2--2--|
||--2--2--2--2-----2-2--2--2--2--2--2--2-----2-2--2--2--|
||--2--2--2--2-----2-2--2--2--0--0--0--0-----0-0--0--0--|
||--2--2--2--2-----2-2--2--2----------------------------|


||--0--0--0--0-----0-0--0--0--2--2--2--2-----2-2--2--2--|
||--0--0--0--0-----0-0--0--0--3--3--3--3-----3-3--3--3--|
||--0--0--0--0-----0-0--0--0--2--2--2--2-----2-2--2--2--|
||--2--2--2--2-----2-2--2--2--0--0--0--0-----0-0--0--0--|
||--2--2--2--2-----2-2--2--2--0--0--0--0-----0-0--0--0--|
||--2--2--2--2-----2-2--2--2--0--0--0--0-----0-0--0--0--|


||------------------------------------------------------|
||----------------------------2--2--2--2-----2-2--2--2--|
||--7--7--7--7-----7-7--7--7--2--2--2--2-----2-2--2--2--|
||--5--5--5--5-----5-5--5--5--2--2--2--2-----2-2--2--2--|
||--5--5--5--5-----5-5--5--5--0--0--0--0-----0-0--0--0--|
||--5--5--5--5-----5-5--5--5----------------------------|



[Outro]
Guitar 1/2:
||------------------------------|------------------------------|
||------------------------------|------------------------------|
||----------0-------------------|----------0-------------------|
||--0h2--------2--0h2-----2-----|--0h2--------2--0h2-----2-----| (Fade Out)
||------------------------------|------------------------------|
||-------2-------------2-----2--|-------2-------------2-----2--|





*****************************
-Tablature Legend-

 h   hammer-on
 p   pull-off
 b   bend
 pb  pre-bend
 r   release bend
 ~   hold / vibrato
 .   palm mute
 /   slide up
 \   slide down
 *   pinch harmonic
 '   natural harmonic
 x   mute note
 T   tap

*****************************
Suggest correction
Give kudos to tab author, rate the tab!
1 2 3 4 5
comments
print report bad tab
4 comments total. Showing first comments.
0 reply
derekrodrigues 15 Nov 27, 2016 09:07 PM

this is not a sword song??? please put it somewhere else! thank you

0 reply
Joshua Garcia [tm] 5,031 8 days ago

You sure about that?

https://www.ultimate-guitar.com/reviews/compact_discs/the_sword/low_country/index.html

https://youtu.be/d3p3DBZ4CvU

Maybe look these things up before assuming, huh? :)

0 reply
derekrodrigues 15 7 days ago, edited at 04:31 am

100 % sure Senor Garcia, SWORD has 2 albums METALIZED & SWEET DREAMS and is from Canada, and the song you are posting seriously mysterious is s song from a band called THE SWORD and they are from texas usa. completely different bands

guest
You may want to rate the tab now too:
select rating
Wanna post a correction for this tab? Suggest correction