Oops, an error
Loading. Please wait.

All I Have Tab

1,154 views 1 this week
no commentswrite comment
1 2 3 4 5
accurate
x 1
add to favorites
launch autoscroll
font size
0
reset
how to read this tab
guitar tuner
Tab Pro tools
  • play this tab
  • loop segment
  • change instrument
  • show fretboard
  • metronome
Autoscroll
slow
fast
+/-
esc
set tempo
stop
Contributor
Difficulty
Tuning
intermediate
D# G# C# F# A# D#
Tuning : EbAbDbGbBbEb

INTRO : guitar 1 :
|------------------------------------------------------------------------|
|------------------------------------------------------------------------|
|------------------------------------------------------------------------|
|------------------------------------------------------------------------|
|-----------------7---8-------7---8-------7---8--------------------------|
|------12\--0-0-0---0---0-0-0---0---0-0-0---0-----0-0-0-0-0-0-0-0-0-0----|
|PM         . . .   .   . . .   .   . . .   .
|
|guitar 2 :
|------------------------------------------------------------------------|
|------------------------------------------------------------------------|
|------------------------------------------------------------------------|
|------------------------------------------------------------------------|
|--------------------------------------------------------------2---------|
|--------------------------------------------------------------0---------|

guitar 1 :
|------------------------------------------------------------------------|
|------------------------------------------------------------------------|
|------------------------------------------------------------------------|
|------------------------------------------------------------------------|
|--------------7---8-------7---8-------7---8-----------------------------|
|--------0-0-0---0---0-0-0---0---0-0-0---0-------------------------------|
|PM      . . .   .   . . .   .   . . .   .
|
|guitar 2 :
|------------------------------------------------------------------------|
|------------------------------------------------------------------------|
|------------------------------------------------------------------------|
|------------------------------------------------------------------------|
|-----------------2-2----------------------------------------------------|
|-----------------0-0----------------------------------------------------|


VERSE : guitars 1 – 2 :
|------------------------------------------------------------------------|
|------------------------------------------------------------------------|
|------------------------------------------------------------------------|
|------------------------------------------------------------------------|
|-----------7---8-------7---8-------7---8-10---8p7-7h8-------------------|
|-----0-0-0---0---0-0-0---0---0-0-0---0------0---------------------------|
PM    . . .   .   . . .   .   . . .   .      .
x2

Guitar 1 :
|------------------------------------------------------------------------|
|------------------------------------------------------------------------|
|------------------------------------------------------------------------|
|------------------------------------------------------------------------|
|-----------7---8-------7---8-------7---8-10---8p7-7h8-------------------|
|-----0-0-0---0---0-0-0---0---0-0-0---0------0---------------------------|
|PM   . . .   .   . . .   .   . . .   .      .
|
|Guitar 2 :
|------------------------------------------------------------------------|
|------------------------------------------------------------------------|
|------------------------------------------------------------------------|
|-----------5---6-------5---6-------5---6-8---6p5-5h6--------------------|
|------------------------------------------------------------------------|
|-----0-0-0---0---0-0-0---0---0-0-0---0------0---------------------------|
|PM   . . .   .   . . .   .   . . .   .      .
x2


CHORUS : guitars 1 – 2 :
|------------------------------------|-----------------------------------|
|------------------------------------|-----------------------------------|
|------------------------------------|-----------------------------------|
|---------9-------9-------7-------10-|-------9-------9-------12-------10-|
|---------7-------7-------5-------8--|-------7-------7-------10-------8--|
|---0-0-0---0-0-0---0-0-0---0-0-0----|-0-0-0---0-0-0---0-0-0----0-0-0----|
PM  . . .   . . .   . . .   . . .      . . .   . . .   . . .    . . . 

Guitar 1 :
|------------------------------------|-----------------------------------|
|------------------------------------|-----------------------------------|
|------------------------------------|-----------------------------------|
|---------9-------9-------7-------10-|-------9-------9-------12-------10-|
|---------7-------7-------5-------8--|-------7-------7-------10-------8--|
|---0-0-0---0-0-0---0-0-0---0-0-0----|-0-0-0---0-0-0---0-0-0----0-0-0----|
|PM . . .   . . .   . . .   . . .      . . .   . . .   . . .    . . . 
|
|Guitar 2 :
|------------------------------------|-----------------------------------|
|------------------------------------|-----------------------------------|
|------------------------------------|-----------------------------------|
|------------------------------------|-----------------------------------|
|------------------------------------|-----------------------------------|
|---0-0-0---0-0-0---0-0-0---0-0-0----|-0-0-0---0-0-0---0-0-0----0-0-0----|
|PM . . .   . . .   . . .   . . .      . . .   . . .   . . .    . . . 


BRIDGE : Guitar 1 :
|------------------------------------------------------------------------|
|------------------------------------------------------------------------|
|------------------------------------------------------------------------|
|------------------------------------------------------------------------|
|------------------------------------------------------------------------|
|---00000000000000000000000000000000000000000000000000000000000000000----|
|PM .................................................................

Guitar 1
|------------------------------------------------------------------------|
|------------------------------------------------------------------------|
|------------------------------------------------------------------------|
|------------------------------------------------------------------------|
|------------------------------------------------------------------------|
|---00000000000000000000000000000000000000000000000000000000000000000----|
|PM .................................................................
|
|Guitar 2 :
|------------------------------------------------------------------------|
|------------------------------------------------------------------------|
|------------------------------------------------------------------------|
|------------------------------------------------------------------------|
|----6---3-5-3---2-3-2~~------6---3---2-3-2------------------------------|
|----4---1-3-1---0-1-0~~------4---1---0-1-0------------------------------|

Guitars 1 – 2 :
|------------------------------------------------------------------------|
|------------------------------------------------------------------------|
|------------------------------------------------------------------------|
|------------------------------------------------------------------------|
|----------------------------6-------------3---------2-3-2---------------|
|--0-0-0-0-0-0-0-0-0-0-0-0-0-4-0-0-0-0-0-0-1-0-0-0-0-0-1-0---------------|
PM . . . . . . . . . . . . .   . . . . . .   . . . . 
(alternate picking for the PM notes)

Guitars 1 – 2 :
|-------------------------------------------------------------------------
|-------------------------------------------------------------------------
|-------------------------------------------------------------------------
|-------------------------------------------------------------------------
|--------------------------2-3-2-------------6-------3---3-2--------------
|--0-0-0-0-0-0-0-0-0-0-0-0-0-1-0-0-0-0-0-0-0-4-0-0-0-1-0-1-0--------------
PM . . . . . . . . . . . .       . . . . . .   . . .   .
(down picking for the PM notes)
Guitars 1 – 2 (following) :
-------------------------------------------------------------------------|
-------------------------------------------------------------------------|
-------------------------------------------------------------------------|
-------------------------------------------------------------------------|
---------------------------2-3-2-------------6---3-5-3---2~~-------------|
---0-0-0-0-0-0-0-0-0-0-0-0-0-1-0-0-0-0-0-0-0-4---1-3-1---0~~-------------|
PM . . . . . . . . . . . .       . . . . . .   
(down picking for PM)
x2 


PRE-SOLO : Guitars 1 – 2 :
|------------------------------------------------------------------------|
|------------------------------------------------------------------------|
|------------------------------------------------------------------------|
|------------------------------------------------------------------------|
|------------------2~~-----------------2~~-------------------------------|
|----/4~~---/1~~---0~~---/4~~---/1~~---0~~-------------------------------|


SOLO : Guitar 1 :
|------------------------------------------------------------------------|
|------------------------------------------------------------------------|
|------------------------------------------------------------------------|
|------------------------------------------------------------------------|
|----2~~------------6~~----3---------------------------------------------|
|----0~~--------0-0-4~~----1---1-1---------------------------------------|
PM              . .            . .
Repeat this during all the solo

Guitar 2 (just the beginning of the solo) :
|-----------------------------------------|------------------------------|
|---12-10h12p10-9-10-9--------------------|------------------------------|
|----------------------10-9---------------|-9~10~13~-----13~14-16-17-16--|
|-------------------------------------7-6-|------------------------------|
|-------------------------------5-7-8-----|----------\\\-----------------|
|-----------------------------------------|----------\\\-----------------|      (pick slide)

Repeat intro
Repeat verse
Repeat chorus


OUTRO :
|------------------------------------------------------------------------|
|------------------------------------------------------------------------|
|------------------------------------------------------------------------|
|------------------------------------------------------------------------|
|-3-2---------------3---3---3-----3-2---------------6\5---3---3/5--------|
|-1-0-0-0-0-0-0-0-0-1-0-1-0-1-0-1-1-0-0-0-0-0-0-0-0-4\3-0-1-0-1/3--------|
PM    . . . . . . .   .   .   . .     . . . . . . .     .   .

X4
Then x5 slower
A final solo starts at the 3rd slow time.
comments
We did not receive enough feedback on this tab! Please rate:
print report bad tab
1 2 3 4 5
I want to post or [tab]
guest
You may want to rate the tab now too:
select rating
Please do not post tabs as comments. Select "correction" instead!