Oops, an error
Loading. Please wait.

Destroyer Tab

973 views 6 this week
1 commentread comment
1 2 3 4 5
please rate
add to favorites
launch autoscroll
font size
0
reset
how to read this tab
guitar tuner
Tab Pro tools
  • play this tab
  • loop segment
  • change instrument
  • show fretboard
  • metronome
×
Best way to learn
"Destroyer"
Autoscroll
slow
fast
+/-
esc
set tempo
stop
Difficulty
intermediate
Tabbed By : H8myself
Tuning : Eb
Artist : Sworn Enemy
Song : Destroyer

\-slade
*- PM
p-pull off
h-hammer on

|--------------------------------------------------------|
|--------------------------------------------------------|
|--------------------------------------------------------|
|--2--------\-\-\-\--------------------------------------|
|--2--------\-\-\-\--------------------------------------|
|--0--------\-\-\-\--------------------------------------|
                  (long pick slade)

|-----------------------------------------------------------------|
|-----------------------------------------------------------------|
|-----------------------------------------------------------------|
|-----------------------------------------------------------------|  6x
|-----2------2-------2-----2------6-6-6------5-5-5----------------|
|-0-1-0--0-1-0--0-1-0--0-1-0--0-4-4-4-4--0-3-3-3-3----------------|
  * *    * *    * *    * *    * *        * *

|------------------------------------------------------|
|------------------------------------------------------|
|------------------------------------------------------|
|------------------------------------------------------|  4x
|-3----------3----------3---------10-9-6-5-------------|
|-1-00000000-1-00000000-1-00000000-8-7-4-3-------------|
    ********   ********   ******** * * * *

|-----------------------------------------------------------------|
|-----------------------------------------------------------------|
|-----------------------------------------------------------------|
|-----------------------------------------------------------------|  8x
|-----2------2------2------2------6-6-6------5-5-5----------------|
|-0-1-0--0-1-0--0-1-0--0-1-0--0-4-4-4-4--0-3-3-3-3----------------|
  * *    * *    * *    * *    * *        * *

|----------------------------------------------------|
|----------------------------------------------------|
|-------------------------------------------------|\-|
|----------------------------------------------------| \
|-3-2---------3-2---6-5---3-6-3-2--------------------|  \
|-1-0-0-0-0-0-1-0-0-4-3-0-1-4-1-0--------------------|   \
      * * * *     *     *                              \
                                                                                         
                                         /    2x
|---------------------------------------------------|  /
|---------------------------------------------------| /
|---------------------------------------------------|
|---------------------------------------------------|
|--------10-9---6-5---3-6-3-2-----------------------|
|-0-0-0-0-8-7-0-4-3-0-1-4-1-0-----------------------|
  * * * *     *     *

|-------------------------------------------------|
|-------------------------------------------------|
|-------------------------------------------------|
|-------------------------------------------------|
|---------3-2---6-5---3-6-3-2---------------------|
|-0-0-0-0-1-0-0-4-3-0-1-4-1-0---------------------|
  * * * *     *     *

|-------------------------------------------------|
|-------------------------------------------------|
|-------------------------------------------------|
|-------------------------------------------------|
|--------10-9---6-5---3-6-3-2---------------------|
|-0000000-8-7-0-4-3-0-1-4-1-0---------------------|
  *******     *     *

|-------------------------------------------------|
|-------------------------------------------------|
|-------------------------------------------------|
|-------------------------------------------------|
|---------3-2---6-5---3-6-3-2---------------------|
|-000-000-1-0-0-4-3-0-1-4-1-0---------------------|
  *** ***     *     *

|------------------------------------------------------------|
|------------------------------------------------------------|
|------------------------------------------------------------|
|------------3-2-----5-4-----7-6-----9-8---------------------|
|------------1-0-3-2-3-2-5-4-5-4-7-6-7-6-9-8-----------------|
|-000-000--------1-0-----3-2-----5-4-----7-6-----------------|
  *** ***

This tabs are whitout solo and outro part .... I hope u like it ..please rate ...thanks 
using this tabs ... When somebody tabbed solo please submite it :)
comments
We did not receive enough feedback on this tab! Please rate:
print report bad tab
1 2 3 4 5
1 comment total.
+1 reply
xXChimairaXx wrote on August 12 2008, 04:17 pm

awesome song. pretty good tab. i was playing it different in some spots, but when i played yours it sounded better. thanks for makin it. now just the solo left...

I want to post or [tab]
guest
You may want to rate the tab now too:
select rating
Please do not post tabs as comments. Select "correction" instead!