Oops, an error
Loading. Please wait.

New Breed Bass Tab

383 views 1 this week
no commentswrite comment
1 2 3 4 5
3 more votes to show rating
add to favorites
launch autoscroll
font size
0
reset
guitar tuner
Autoscroll
slow
fast
+/-
esc
set tempo
stop
Help us to improve Ultimate-Guitar.com Take our survey!
×
Author
Difficulty
this is the only bass song i no...
G|---------------|
D|---------------|
A|-6*-2-7-6*-2-1-|
E|---------------|

G|-------------------------------|
D|-------------------------------|
A|-666666-222-777-666666-222-111-|
E|-------------------------------|

G|--------------------|--------------------|
D|--------------------|--------------------|
A|-6--------6-------7-|-6--------6---------|
E|---000000---0-7-0---|---000000---0-7-0-6-|

        x2
G|--------------|-----------|
D|--------------|-----------|
A|-6------66666-|-6-------7-|
E|---0000-------|---0-7-0---|

G|-----------|
D|-----------|
A|6*----7*-6*|
E|---7*------|

thats it have fun!
Suggest correction
Give kudos to tab author, rate the tab!
1 2 3 4 5
comments
print report bad tab
guest
You may want to rate the tab now too:
select rating
Wanna post a correction for this tab? Suggest correction