Oops, an error
Loading. Please wait.

Scared Of The Unknown Tab

version 1
version 1

Whole song

Interactive

3,292 views 3 this week
4 commentsread comments
1 2 3 4 5
x 3
add to favorites
launch autoscroll
font size
0
reset
how to read this tab
guitar tuner
Autoscroll
slow
fast
+/-
esc
set tempo
stop
Help us to improve Ultimate-Guitar.com Take our survey!
×
Difficulty
intermediate
I would put guitar 1 and guitar 2 because they have 2 guitar players but
they play the same thing, so one guitar player could play this song alone
anyway. If your not too much of a novice you could play this song.
SWORN ENEMY RULES

Intro
Eb||----------------------------------------------------------------------|
Bb||----------------------------------------------------------------------|
Gb||----------------------------------------------------------------------|
Db||---------------------------------10-----------------------------------|
Ab||-2---7-8-7~---5-7-8---2----7-8-7----8-7--5-7-8------------------------|
Db||-0--------------------0-----------------------------------------------|

Eb||----------------------------------------------------------------------|
Bb||----------------------------------------------------------------------|
Gb||----------------------------------------------------------------------|
Db||----------------------------------------------------------------------|
Ab||-2---7-8-7~---8--7--5--3--2-------------------------------------------|
Db||-0------------6--5--3--1--0-------------------------------------------|
pm                .  .  .  .    Theres one slide the first time  Repeat 1x


Eb||----------------------------------------------------------------------|
Bb||----------------------------------------------------------------------|
Gb||----------------------------------------------------------------------|
Db||-------------------------------------------10-------------------------|
Ab||---------7-8-7---------5-7-8---------7-8-7----8-7--5-7-8--------------|
Db||-000-000-------000-000-------000-000----------------------------------|
pm   ... ...       ... ...       ... ...
Eb||----------------------------------------------------------------------|
Bb||----------------------------------------------------------------------|
Gb||----------------------------------------------------------------------|
Db||-------------------------------------------10-------------------------|
Ab||---------7-8-7---------5-7-8---------7-8-7----8-7--5-7-8--------------|
Db||-000-000-------000-000-------000-000----------------------------------|
pm   ... ...       ... ...       ... ...                         Repeat 1x


Eb||----------------------------------------------------------------------|
Bb||----------------------------------------------------------------------|
Gb||----------------------------------------------------------------------|
Db||--------------------------------------------10------------------------|
Ab||---------7-8-7----------5-7-8---------7-8-7----8-7--5-7-8-------------|
Db||-000-000--------0-0-0-0-------000-000---------------------------------|
pm   ... ...        . . . .       ... ...                        Repeat 1x


Chorus
Eb||----------------------------------------------------------------------|
Bb||----------------------------------------------------------------------|
Gb||----------------------------------------------------------------------|
Db||----------------------------------------------------------------------|
Ab||-222-222-222-222-222-222-222-222-333-222-222-222-333-555-666-555-333--|
Db||-000-000-000-000-000-000-000-000-111-000-000-000-111-333-444-333-111--|
pm   ... ... ... ... ... ... ... ... ... ... ... ... ... ... ... ... ...

Eb||----------------------------------------------------------------------|
Bb||----------------------------------------------------------------------|
Gb||----------------------------------------------------------------------|
Db||----------------------------------------------------------------------|
Ab||-222-222-222-222-222-222-222-222-333-222-222-222-333-555-666-555-333--|
Db||-000-000-000-000-000-000-000-000-111-000-000-000-111-333-444-333-111--|
pm   ... ... ... ... ... ... ... ... ... ... ... ... ... ... ... ... ...

Verse 1 (this comes right in after the chorus)
Eb||----------------------------------------------------------------------|
Bb||----------------------------------------------------------------------|
Gb||----------------------------------------------------------------------|
Db||-----------------------------------------------10---------------------|
Ab||-2-------2------7-8-5-7------------------7-8-7----8~------------------|
Db||-0--0-0--0--000----------000-000-000-000------------------------------|
pm      . .     ...          ... ... ... ...

Eb||----------------------------------------------------------------------|
Bb||----------------------------------------------------------------------|
Gb||----------------------------------------------------------------------|
Db||----------------------------------------------------------------------|
Ab||-----------------7-8-5-7------------------7-8-7--3-6-5-5--------------|
Db||-000-000-000-000----------000-000-000-000--------1-4-3-3--------------|
pm   ... ... ... ...          ... ... ... ...


Eb||----------------------------------------------------------------------|
Bb||----------------------------------------------------------------------|
Gb||----------------------------------------------------------------------|
Db||-----------------------------------------------10---------------------|
Ab||-2-------2------7-8-5-7------------------7-8-7----8~------------------|
Db||-0--0-0--0--000----------000-000-000-000------------------------------|
pm      . .     ...          ... ... ... ...

Eb||----------------------------------------------------------------------|
Bb||----------------------------------------------------------------------|
Gb||----------------------------------------------------------------------|
Db||----------------------------------------------------------------------|
Ab||-----------------7-8-5-7------------------7-8-7--3-6-5-5--------------|
Db||-000-000-000-000----------000-000-000-000--------1-4-3-3--------------|
pm   ... ... ... ...          ... ... ... ...


Chorus
Eb||----------------------------------------------------------------------|
Bb||----------------------------------------------------------------------|
Gb||----------------------------------------------------------------------|
Db||----------------------------------------------------------------------|
Ab||-222-222-222-222-222-222-222-222-333-222-222-222-333-555-666-555-333--|
Db||-000-000-000-000-000-000-000-000-111-000-000-000-111-333-444-333-111--|
pm   ... ... ... ... ... ... ... ... ... ... ... ... ... ... ... ... ...

Eb||----------------------------------------------------------------------|
Bb||----------------------------------------------------------------------|
Gb||----------------------------------------------------------------------|
Db||----------------------------------------------------------------------|
Ab||--------------------------------------------------3-6-5-5-------------|
Db||-0-0-000-0-0-000-0-0-000-0-0-000-0-0-000-0-0-000--1-4-3-3-------------|
pm   . . ... . . ... . . ... . . ... . . ... . . ...             Repeat 1x


Verse 2
Eb||----------------------------------------------------------------------|
Bb||----------------------------------------------------------------------|
Gb||----------------------------------------------------------------------|
Db||-------------------------------------10-------------------------------|
Ab||------7-8-5-7------------------7-8-7----8~----------------------------|
Db||--000----------000-000-000-000----------------------------------------|
pm    ...          ... ... ... ...

Eb||----------------------------------------------------------------------|
Bb||----------------------------------------------------------------------|
Gb||----------------------------------------------------------------------|
Db||----------------------------------------------------------------------|
Ab||-----------------7-8-5-7------------------7-8-7--3-6-5-5--------------|
Db||-000-000-000-000----------000-000-000-000--------1-4-3-3--------------|
pm   ... ... ... ...          ... ... ... ...                    Repeat 1x


Chorus
Eb||----------------------------------------------------------------------|
Bb||----------------------------------------------------------------------|
Gb||----------------------------------------------------------------------|
Db||----------------------------------------------------------------------|
Ab||-222-222-222-222-222-222-222-222-333-222-222-222-333-555-666-555-333--|
Db||-000-000-000-000-000-000-000-000-111-000-000-000-111-333-444-333-111--|
pm   ... ... ... ... ... ... ... ... ... ... ... ... ... ... ... ... ...

Eb||----------------------------------------------------------------------|
Bb||----------------------------------------------------------------------|
Gb||----------------------------------------------------------------------|
Db||----------------------------------------------------------------------|
Ab||--------------------------------------------------3-6-5-5-------------|
Db||-0-0-000-0-0-000-0-0-000-0-0-000-0-0-000-0-0-000--1-4-3-3-------------|
pm   . . ... . . ... . . ... . . ... . . ... . . ...             Repeat 1x


Verse 3
Eb||----------------------------------------------------------------------|
Bb||----------------------------------------------------------------------|
Gb||----------------------------------------------------------------------|
Db||-------------------------------------10-------------------------------|
Ab||------7-8-5-7------------------7-8-7----8~----------------------------|
Db||--000----------000-000-000-000----------------------------------------|
pm    ...          ... ... ... ...

Eb||-------------------------------------------------|------------------|
Bb||-------------------------------------------------|------------------|
Gb||-------------------------------------------------|------------------|
Db||-------------------------------------------------|------------------|
Ab||-----------------7-8-5-7------------------7-8-7--|--3-6-5-5---------|
Db||-000-000-000-000----------000-000-000-000--------|--1-4-3-3---------|
pm   ... ... ... ...          ... ... ... ...        Rpt this small part 3x


The Bridge is Easy I know you can get this so enjoy.
Suggest correction
Give kudos to tab author, rate the tab!
1 2 3 4 5
comments
print report bad tab
4 comments total. Showing first comments.
0 reply
Tias 181 Jul 24, 2006 04:16 PM

nice shit your the first one who posts a tab of sworn enemy, but are you sure that is a Eb tuning?

-1 reply
halfstepdown88 203 Oct 03, 2006 10:17 PM

Why do you have drop d but have normal powerchords?

But sworn enemy rules and this is a nice tab man I rated it 5 stars

0 reply
soulchamber 10 Dec 24, 2006 07:00 AM

do you have more sworn enemy tabs?

guest
You may want to rate the tab now too:
select rating
Wanna post a correction for this tab? Suggest correction