Oops, an error
Loading. Please wait.

Scared Of The Unknown Tab

version 2
version 2

Whole song

Interactive

597 views 1 this week
no commentswrite comment
1 2 3 4 5
please rate
add to favorites
launch autoscroll
font size
0
reset
how to read this tab
guitar tuner
Tab Pro tools
  • play this tab
  • loop segment
  • change instrument
  • show fretboard
  • metronome
×
Best way to learn
"Scared Of The Unknown"
Autoscroll
slow
fast
+/-
esc
set tempo
stop
Difficulty
intermediate
d|------------------------------------------------------------    -|
A|------------------------------------------------------------     |
F|---------------------------------------6--------------------     |
C|--3----3-4-3---1-3-4-----3---3-4-3--------4-3--1-3-4--------     |
G|--3----------------------3----------------------------------     |
D|--1----------------------1----------------------------------     |
                                                                   | X2
d|-------------------------------------------------------------    |
A|-------------------------------------------------------------    |
F|-------------------------------------------------------------    |
C|--3-----3-4-3----7-6-5-3-------------------------------------    |
G|--3--------------7-6-5-3-------------------------------------    |
D|--1--------------5-4-3-1-----------------pickslide-----------  --|

d|--------------------------------------------------------------|
A|--------------------------------------------------------------|
F|------------------------------------------------6-------------|
C|--3-3-----3-4-3----3-3---1-3-4----3-3----3-4-3----4-3--1-3-4--|
G|--3-3--------------3-3------------3-3-------------------------|
D|--1-1--------------1-1------------1-1-------------------------|

d|--------------------------------------------------------------|
A|--------------------------------------------------------------|
F|--------------------------------------------------------------|
C|--3-3-3-3-3-3-3-3--4-4-4-4-4-7-7-4----------------------------|
G|--3-3-3-3-3-3-3-3--4-4-4-4-4-7-7-4----------------------------|
D|--1-1-1-1-1-1-1-1--2-2-2-2-2-5-5-2----------------------------|

d|----------------------------------------------------------------|
A|----------------------------------------------------------------|
F|------------------------------------6---------------------------|
C|--3-3-3---3-4-1-3--3-3-3-3---3-4-3----4-3-----------------------|
G|--3-3-3------------3-3-3-3--------------------------------------|
D|--1-1-1------------1-1-1-1--------------------------------------|

d|--------------------------------------------------------------|
A|--------------------------------------------------------------|
F|--------------------------------------------------------------|
C|--3-3----3-4-1-4---3-3-3-3---3-4-3---3--7--4------------------|
G|--3-3--------------3-3-3-3-----------3--7--4------------------|
D|--1-1--------------1-1-1-1-----------1--5--2------------------|

d|--------------------------------------------------------------|
A|--------------------------------------------------------------|
F|--------------------------------------------------11----11----|
C|--3--7--4---3--7--4---3--7--4----3--3-3--3--3-3------10-------|
G|--3--7--4---3--7--4---3--7--4----3--3-3--3--3-3---------------|
D|--1--5--2---1--5--2---1--5--2----1--1-1--1--1-1---------------|

d|---------------------------------------------------------------|
A|---------------------------------------------------------------|
F|---------------------------------------------------------------|
C|--3-3-3--3-3-3--3-3----3-3-3--3-3-3-3--3-7-4-------------------|
G|--3-3-3--3-3-3--3-3----3-3-3--3-3-3-3--3-7-4-------------------|
D|--1-1-1--1-1-1--1-1----1-1-1--1-1-1-1--1-5-2-------------------|

d|--------------------------------------------------------------|
A|--------------------------------------------------------------|
F|------------------------------------------------6-------------|
C|--3-3-----3-4-3----3-3---1-3-4----3-3----3-4-3----4-3--1-3-4--|
G|--3-3--------------3-3------------3-3-------------------------|
D|--1-1--------------1-1------------1-1-------------------------|

d|-----------------------------------------------------------------|
A|-----------------------------------------------------------------|
F|-----------------------------------------------------------------|
C|--3-3---3--------------------------------------------------------|
G|--3-3---3--------------------------------------------------------|
D|--1-1---1--------------------------------------------------------|
comments
We did not receive enough feedback on this tab! Please rate:
print report bad tab
1 2 3 4 5
I want to post or [tab]
guest
You may want to rate the tab now too:
select rating
Please do not post tabs as comments. Select "correction" instead!