Oops, an error
Loading. Please wait.

Lucifer Effect Tab

2,045 views 3 this week
no commentswrite comment
1 2 3 4 5
please rate
add to favorites
launch autoscroll
font size
0
reset
how to read this tab
guitar tuner
Autoscroll
slow
fast
+/-
esc
set tempo
stop
Help us to improve Ultimate-Guitar.com Take our survey!
×
Author
Difficulty
Tuning
intermediate
B F# B E G# C#
-------------------------------------------------------------------------------
                             Lucifer Effect - Sybreed
-------------------------------------------------------------------------------
Tabbed by: Khaki-Buzzard
Email: metalingoose@msn.com

This is the same tab as before, but more updated as there were some palm muting errors 
the outro was wrong, so they have been corrected. Enjoy The tab!

Tuning: Drop B

Riff A (x2) Intro
C#|-----------------------------------|
G#|-----------------------------------|
 E|-----------------------------------|
 B|-2--------2-----2-3-----3----------|
F#|-2--------2-----2-3-----3----------|
 B|-2-222222-2-2-2-2-3-3-3-3-000333---|
P.M   ......   . .     . .

C#|--------------------------------------|
G#|--------------------------------------|
 E|--------------------------------------|
 B|-2--------2-----2-3---0---------------|
F#|-2--------2-----2-3---0---------------|
 B|-2-222222-2-2-2-2-3-0-0-3-2-0-2-1-0---|
P.M   ......   . .     .   . . . . . .

C#|-----------------------------------|
G#|-----------------------------------|
 E|-----------------------------------|
 B|-2--------2-----2-3-----3----------|
F#|-2--------2-----2-3-----3----------|
 B|-2-222222-2-2-2-2-3-3-3-3-000333---|
P.M   ......   . .     . .

C#|-----------------------------------|
G#|-----------------------------------|
 E|-----------------------------------|
 B|-2--------2-----2-3----------------|
F#|-2--------2-----2-3----------------|
 B|-2-222222-2-2-2-2-3-000000000000---|
P.M   ......   . .

Riff B Verse (x3)          Riff B1 (x1)     Riff B (x3)
C#|-----------------------|C#|-------------|C#|-----------------------|
G#|-----------------------|G#|-------------|G#|-----------------------|
 E|-----------------------| E|-------------| E|-----------------------|
 B|-0---0-----0-3-0-6-0---| B|-0---0-------| B|-0---0-----0-3-0-6-0---|
F#|-0-0---0---0-3-0-6-0---|F#|-0-0---0-----|F#|-0-0---0---0-3-0-6-0---|
 B|-0-------0-0-3-0-6-0---| B|-0-------0---| B|-0-------0-0-3-0-6-0---|

Riff B2 (x1)
C#|--------------------------|
G#|--------------------------|
 E|--------------------------|
 B|-0---0-----333333333333---|
F#|-0-0---0---333333333333---|
 B|-0-------0-333333333333---|

Riff C (x2) Chorus
C#|---------------------------------------------------|
G#|---------------------------------------------------|
 E|---------------------------------------------------|
 B|-9-9---9-9-7h9--9-9---9-9-7-555555555555-0-3-3-0---|
F#|-9-9---9-9-7h9--9-9---9-9-7-555555555555-0-3-3-0---|
 B|-9-9-9-9-9-7h9--9-9-9-9-9-7-555555555555-0-3-3-0---|

C#|-------------------------------------------------------|
G#|-------------------------------------------------------|
 E|-------------------------------------------------------|
 B|-9-9---9-9-x-x--9-9---9-9-9-555555555555333333333333---|
F#|-9-9---9-9-x-x--9-9---9-9-9-555555555555333333333333---|
 B|-9-9-9-9-9-x-x--9-9-9-9-9-9-555555555555333333333333---|

Riff A (x1) Intro
C#|-----------------------------------|
G#|-----------------------------------|
 E|-----------------------------------|
 B|-2--------2-----2-3-----3----------|
F#|-2--------2-----2-3-----3----------|
 B|-2-222222-2-2-2-2-3-3-3-3-000333---|
P.M   ......   . .     . .

C#|--------------------------------------|
G#|--------------------------------------|
 E|--------------------------------------|
 B|-2--------2-----2-3---0---------------|
F#|-2--------2-----2-3---0---------------|
 B|-2-222222-2-2-2-2-3-0-0-3-2-0-2-1-0---|
P.M   ......   . .     .   . . . . . .

C#|-----------------------------------|
G#|-----------------------------------|
 E|-----------------------------------|
 B|-2--------2-----2-3-----3----------|
F#|-2--------2-----2-3-----3----------|
 B|-2-222222-2-2-2-2-3-3-3-3-000333---|
P.M   ......   . .     . .

C#|-----------------------------------|
G#|-----------------------------------|
 E|-----------------------------------|
 B|-2--------2-----2-3----------------|
F#|-2--------2-----2-3----------------|
 B|-2-222222-2-2-2-2-3-000000000000---|
P.M   ......   . .

Riff B Verse (x3)          Riff B1 (x1)     Riff B (x3)
C#|-----------------------|C#|-------------|C#|-----------------------|
G#|-----------------------|G#|-------------|G#|-----------------------|
 E|-----------------------| E|-------------| E|-----------------------|
 B|-0---0-----0-3-0-6-0---| B|-0---0-------| B|-0---0-----0-3-0-6-0---|
F#|-0-0---0---0-3-0-6-0---|F#|-0-0---0-----|F#|-0-0---0---0-3-0-6-0---|
 B|-0-------0-0-3-0-6-0---| B|-0-------0---| B|-0-------0-0-3-0-6-0---|

Riff B2 (x1)
C#|--------------------------|
G#|--------------------------|
 E|--------------------------|
 B|-0---0-----333333333333---|
F#|-0-0---0---333333333333---|
 B|-0-------0-333333333333---|

Riff C (x2) Chorus
C#|---------------------------------------------------|
G#|---------------------------------------------------|
 E|---------------------------------------------------|
 B|-9-9---9-9-7h9--9-9---9-9-7-555555555555-0-3-3-0---|
F#|-9-9---9-9-7h9--9-9---9-9-7-555555555555-0-3-3-0---|
 B|-9-9-9-9-9-7h9--9-9-9-9-9-7-555555555555-0-3-3-0---|

C#|-------------------------------------------------------|
G#|-------------------------------------------------------|
 E|-------------------------------------------------------|
 B|-9-9---9-9-x-x--9-9---9-9-9-555555555555333333333333---|
F#|-9-9---9-9-x-x--9-9---9-9-9-555555555555333333333333---|
 B|-9-9-9-9-9-x-x--9-9-9-9-9-9-555555555555333333333333---|

Riff D (x4) Bridge
C#|-----------------------------------------------------------------|
G#|-----------------------------------------------------------------|
 E|-----------------------------------------------------------------|
 B|-----------------------------------------------------------------|
F#|-----------------------------------------------------------------|
 B|-2002002b-2222222222222222222-333000-3-2-0-333000-2b-0-2-2-3-0---|
P.M  .. ..    .. .. .. .. .. ..  ...... . . . ......        .

Riff (x1) Fill
C#|------------------------|
G#|------------------------|
 E|------------------------|
 B|-12-12-12----12-12-12---|
F#|-12-12-12----12-12-12---|
 B|-12-12-12-12-12-12-12---|
P.M          ..

Riff C (x2) Chorus
C#|---------------------------------------------------|
G#|---------------------------------------------------|
 E|---------------------------------------------------|
 B|-9-9---9-9-7h9--9-9---9-9-7-555555555555-0-3-3-0---|
F#|-9-9---9-9-7h9--9-9---9-9-7-555555555555-0-3-3-0---|
 B|-9-9-9-9-9-7h9--9-9-9-9-9-7-555555555555-0-3-3-0---|

C#|-----------------------------------------------------|
G#|-----------------------------------------------------|
 E|-----------------------------------------------------|
 B|-9-9---9-9-x-x--9-9---9-9-555555555555333333333333---|
F#|-9-9---9-9-x-x--9-9---9-9-555555555555333333333333---|
 B|-9-9-9-9-9-x-x--9-9-9-9-9-555555555555333333333333---|

Riff E (x1) Outro
C#|------------------------------------------------------------|
G#|------------------------------------------------------------|
 E|------------------------------------------------------------|
 B|------------------------------------------------------------|
F#|------------------------------------------------------------|
 B|-22-222---22-22---2---22-22---22-2222---2---22-22---2-2-2---|
P.M .. ...   .. ..   .   .. ..   .. ....   .   .. ..   . . .


P.M - Palm Mute
Suggest correction
Give kudos to tab author, rate the tab!
1 2 3 4 5
comments
print report bad tab
guest
You may want to rate the tab now too:
select rating
Please do not post tabs as comments. Select "correction" instead!