Oops, an error
Loading. Please wait.

Night Shaped Light tab

61 views 1 this week
no commentswrite comment
1 2 3 4 5
3 more votes to show rating
add to favorites
×
Save as Personal and add changes to this tab that will be seen only by you. Learn more ›
×
You can save this tab as Personal to edit and correct it or add notes. All changes will be seen only by you. Learn more »
launch autoscroll
font size
0
reset
how to read this tab
guitar tuner
edit
Autoscroll
slow
fast
+/-
esc
set tempo
stop
Author
Difficulty
3/4
Mandolin/Guitar strumming

  Am                        Bm                         Bb/C*                         *Note the C is in the
E|5-x-x-x-5-x-x|5-x-x-x-5-5|7-x-x-x-7-x-x|7-x-x-x-7-7\|6-x-x-x-6-x-x-|6-x-x-x-6-6|  bass guitar, not strummed
B|5-x-x-x-5-x-x|5-x-x-x-5-5|7-x-x-x-7-x-x|7-x-x-x-7-7\|6-x-x-x-6-x-x-|6-x-x-x-6-6|
G|5-x-x-x-5-x-x|5-x-x-x-5-5|7-x-x-x-7-x-x|7-x-x-x-7-7\|7-x-x-x-7-x-x-|7-x-x-x-7-7|
D|7-x-x-x-7-x-x|7-x-x-x-7-7|9-x-x-x-9-x-x|9-------9-9\|8-x-x-x-8-x-x-|8-x-x-x-8-8|
A|-------------|-----------|-------------|------------|--------------|-----------|
E|-------------|-----------|-------------|------------|--------------|-----------|

  D
E|10-x-x-x-10-x-x|10-x-x-x-10-10|
B|10-x-x-x-10-x-x|10-x-x-x-10-10|
G|11-x-x-x-11-x-x|11-x-x-x-11-11|
D|12-x-x-x-12-x-x|12-x-x-x-12-12|
A|---------------|--------------|
E|---------------|--------------|


  Violin melody

   Am         Bm      Bb/C    D        Am      Bm Bb/C       D
E||5~~-7-8-10|7------|-------|---------|8-7-5--|--|--10--8-10|12~--10-10~-----|
B||----------|--8-5~~|6~~-8-5|-----8h10|------5|--|8---------|------------8h10|
G||----------|-------|-------|7~-------|-------|7~|----------|----------------|
D||----------|-------|-------|---------|-------|--|----------|----------------|
A||----------|-------|-------|---------|-------|--|----------|----------------|
E||----------|-------|-------|---------|-------|--|----------|----------------|

  Am      Bm Bb/C            D
E|8-7-5--|--|--10--8-10|12~--10-10~||
B|------5|--|8---------|-----------||
G|-------|7~|----------|-----------||
D|-------|--|----------|-----------||
A|-------|--|----------|-----------||
E|-------|--|----------|-----------||


 Arpeggios  
    
   Amaj7                                      Dm7#5                               Ebmaj7
E||---------------------|--------------------|-----------------|-----------------|------------------18|
B||O------------17h19h20|------------17h19h20|-----------------|-----------------|---------------20---|
G||-------16h17---------|------16h17---------|---------15h17/19|---------15h17/19|------15h19/20------|
D||---------------------|--------------------|12h15/17---------|12h15/17---------|---17---------------|
A||O-15h19--------------|15h19---------------|-----------------|-----------------|18------------------|
E||---------------------|--------------------|-----------------|-----------------|--------------------|

                       Em
E|------------------18|----------------------||
B|---------------20---|---------------------O||
G|------15h19/20------|------16h17p16--------||
D|---17---------------|14h17----------17p14--||
A|18------------------|---------------------O||
E|--------------------|----------------------||


Over the strumming pattern again      _____ __________________
                                      1.   | 2.               |
   A     Ab          G   F   A  Ab     G Ab  G    Ab  
E||--8-6---8p6------|7---8-6|---------|----||-----------15----|
B||O-----8-----8-6-5|--8----|8-6-8----|---O||-----13-11----13~|
G||-----------------|-------|------5-8|----||-----------------|
D||-----------------|-------|---------|----||-----------------|
A||O----------------|-------|---------|---O||13~--------------|
E||-----------------|-------|---------|----||-----------------|

  Am                        Bm                         Bb/C*                         
E|5-x-x-x-5-x-x|5-x-x-x-5-5|7-x-x-x-7-x-x|7-x-x-x-7-7\|6-x-x-x-6-x-x-|6-x-x-x-6-6|  
B|5-x-x-x-5-x-x|5-x-x-x-5-5|7-x-x-x-7-x-x|7-x-x-x-7-7\|6-x-x-x-6-x-x-|6-x-x-x-6-6|
G|5-x-x-x-5-x-x|5-x-x-x-5-5|7-x-x-x-7-x-x|7-x-x-x-7-7\|7-x-x-x-7-x-x-|7-x-x-x-7-7|
D|7-x-x-x-7-x-x|7-x-x-x-7-7|9-x-x-x-9-x-x|9-------9-9\|8-x-x-x-8-x-x-|8-x-x-x-8-8|
A|-------------|-----------|-------------|------------|--------------|-----------|
E|-------------|-----------|-------------|------------|--------------|-----------|

  D
E|10-x-x-x-10-x-x|10-x-x-x-10-10|
B|10-x-x-x-10-x-x|10-x-x-x-10-10|
G|11-x-x-x-11-x-x|11-x-x-x-11-11|
D|12-x-x-x-12-x-x|12-x-x-x-12-12|
A|---------------|--------------|
E|---------------|--------------|


  Violin melody

   Am           Bm      Bb/C    D        Am      Bm Bb/C       D
E||5~~-5-7-8-10|7------|-------|---------|8-7-5--|--|--10--8-10|12~--10-10~-----|
B||------------|--8-5~~|6~~-8-5|-----8h10|------5|--|8---------|------------8h10|
G||------------|-------|-------|7~-------|-------|7~|----------|----------------|
D||------------|-------|-------|---------|-------|--|----------|----------------|
A||------------|-------|-------|---------|-------|--|----------|----------------|
E||------------|-------|-------|---------|-------|--|----------|----------------|

  Am      Bm Bb/C            D
E|8-7-5--|--|--10--8-10|12~--10-10~||
B|------5|--|8---------|-----------||
G|-------|7~|----------|-----------||
D|-------|--|----------|-----------||
A|-------|--|----------|-----------||
E|-------|--|----------|-----------||

  Amaj7                                    Dm7#5                               Ebmaj7
E|-------------------|--------------------|-----------------|-----------------|------------------18|
B|-----------17h19h20|------------17h19h20|-----------------|-----------------|---------------20---|
G|-----16h17---------|------16h17---------|---------15h17/19|---------15h17/19|------15h19/20------|
D|-------------------|--------------------|12h15/17---------|12h15/17---------|---17---------------|
A|15h19--------------|15h19---------------|-----------------|-----------------|18------------------|
E|-------------------|--------------------|-----------------|-----------------|--------------------|

                       Em
E|------------------18|----------------------|
B|---------------20---|----------------------|
G|------15h19/20------|------16h17p16--------|
D|---17---------------|14h17----------17p14--|
A|18------------------|----------------------|
E|--------------------|----------------------|


Over the strumming pattern again      _____ __________________
                                      1.   | 2.               |
   A     Ab          G   F   A  Ab     G Ab  G    Ab  
E||--8-6---8p6------|7---8-6|---------|----||-----------15----|
B||O-----8-----8-6-5|--8----|8-6-8----|---O||-----13-11----13~|
G||-----------------|-------|------5-8|----||-----------------|
D||-----------------|-------|---------|----||-----------------|
A||O----------------|-------|---------|---O||13~--------------|
E||-----------------|-------|---------|----||-----------------|

   A     Ab          G   F   A  Ab     G 
E||--8-6---8p6------|7---8-6|---------|--|
B||O-----8-----8-6-5|--8----|8-6-8----|--|
G||-----------------|-------|------5-8|--|
D||-----------------|-------|---------|--|
A||O----------------|-------|---------|--|
E||-----------------|-------|---------|--|

E|--------------|---------------------|--------------|--------------|---------------|
B|--------------|---------------------|--------------|--------------|---------------|
G|--------8----8|---------------------|--------8----8|--------8----8|---------------|
D|10-8-10---10--|10-x-8-x-6-x-5--8-10\|10-8-10---10--|10-8-10---10--|6---5---8---10\|
A|--------------|---------------------|--------------|--------------|---------------|
E|--------------|8--x-6-x-4-x-3--6-8-\|--------------|--------------|4-x-3-x-6-x-8-\|

   C
E||---------------|----------------------||
B||O--------------|---------------------O||
G||---------8----8|----------------------||
D||-10-8-10---10--|10-x-8-x-6-x-5--8-10\-||
A||O--------------|---------------------O|| x6
E||---------------|8--x-6-x-4-x-3--6-8-\-||


(the from here is quite hard to tell, so there may be some inaccuracy)

  C        Gm       F     Gm
E|--------|15-15-15|x-1-1|x-3-3|
B|13-13-13|--------|x-1-1|x-3-3|
G|--------|12-12-12|x-2-2|x-3-3|
D|10-10-10|--------|x-3-3|x-3-3|
A|--------|--------|-----|-----| until end
E|--------|--------|-----|-----|


 [Solo] (around 2:36) 

  Very indistinct and low in the mix, and also heavily effected so this is difficult to hear;
  essentially noodling in C minor pentatonic.
E|-------------------------------------------------------------------------------------------------------|
B|------------------------------------------------------------------------------------------------4-3----|
G|---------------------5~-----------------8-7-8-7-----------------------------5~--------5-3-5-3-5-----3--|
D|-------------3/5----------------1/3-3-----------8-5~--5---3h5-5~~--3-5/8-5~---------3-----------------5|
A|3~---1h3-1-3-----1~-----1-3p1-1-------------------------6-----------------------3-6--------------------|
E|-------------------------------------------------------------------------------------------------------|

E|------------------------------------------------------------------------------------------------------|
B|----------------------------------------------6----11-11-----11-----11------------11----11/13-13-13-13|
G|----------------------------------5-7-8p7-8-8---8--------10~----10~----10------10----10---------------|
D|5-5-5-3-3-5---------------------------------------------------------------10~-------------------------|
A|------------6~-6-3-6-3~--3-6-3-6----------------------------------------------------------------------|
E|------------------------------------------------------------------------------------------------------|

E|------------------------------------------------------------------8-----8--8-----8-8-8-8|
B|---16-15------------------------------13-13~--4--6h8p6\4----------11b13----11b13--------|
G|15-------12~--12-15-12----------12h15--------------------5---3-5------------------------|
D|-----------------------15-13-15----------------------------5----------------------------|
A|----------------------------------------------------------------------------------------|
E|----------------------------------------------------------------------------------------|

E|--------------------------------------------------------------------------------------------------|
B|-----------------------8--------------------------------------------------------------------------|
G|7h8p7\5-7-5-----7-8-10---10-8-7----7--------------------------------------------------------------|
D|------------5-8-----------------10---10-7-8-10-----------------------------------------------10-10|
A|-----------------------------------------------8-8--8h10-8----8--------------8-8-10-10/11\10------|
E|-----------------------------------------------------------11---8-8--8-10-11----------------------|

E|----------------------------------------------------------------------------------|
B|-------------8--------------------------------------------------------8-11-11/13--|
G|8-8-10-10/11---10-10-10br12-8-10-10b12-10-10b12-10~-10b12-10~-8-10-10-------------|
D|----------------------------------------------------------------------------------|
A|----------------------------------------------------------------------------------|
E|---------------------------------------------------------------------------------8|

E|----------------------------------------|
B|----------------------------------------|
G|----------------------------------------|
D|10-8------------------------------------|
A|-----8h10-8----10p8h10-10-8-6h8-8-------|
E|------------11--------------------6-8-8\|


************************************

| x   Dead note
| h   Hammer-on
| p   Pull-off
| b   Bend
| br  Bend release
| /   Slide up
| \   Slide down
| ~   Vibrato

************************************

            
            
Suggest correction
Creating personal tab
Creating personal tab
You can edit any tab online and save it as your Personal.

You can edit, replace or remove any tab part or add personal notes – all changes will be seen only by you.

Personal tabs can be accessed anytime from any device, even offline.
Learn more »
Give kudos to tab author, rate the tab!
1 2 3 4 5
comments
print report bad tab
guest
You may want to rate the tab now too:
select rating
Wanna post a correction for this tab? Suggest correction