Oops, an error
Loading. Please wait.

Ode To The Summer tab

version 1
version 1

Whole song

Interactive

322 views 6 this week
1 commentread comment
1 2 3 4 5
1 last vote to show rating
add to favorites
×
Save as Personal and add changes to this tab that will be seen only by you. Learn more ›
×
You can save this tab as Personal to edit and correct it or add notes. All changes will be seen only by you. Learn more »
launch autoscroll
font size
0
reset
how to read this tab
guitar tuner
edit
Autoscroll
slow
fast
+/-
esc
set tempo
stop
Author
Ode to the Summer - Syd Arthur    (C) 2013

Tabbed by Sam G, 17 July 2016

Guitar 1                      Gm7
e|--------------------------------------------|
B|----------------------------3-X---X---------|
G|----------------------------3-X---X---------|
D|----------------------------3-X---X-3h5-5---|
A|-----5-8-----5-8-----5-8------X---X---------|
E|-6-8-----6-8-----6-8------3---X---X---------|


e|---------------------------------------|
B|----3-X---X-----------3--X----X--------|
G|----3-X---X-----------3--X----X--------|
D|----3-X---X-3h5-5-----3--X----X-3h5-5--|
A|------X---X-----------3--X----X--------|
E|--3---X---X---------3----X----X--------|


e|----------------------------------------|
B|----------------------3--X----X---------|
G|----------------------3--X----X---------|
D|-----------------5----3--X----X-3h5-5---| This pattern continues,
A|-----5-8-----5-8---------X----X---------| use the song for referece!
E|-6-8-----6-8-------3-----X----X---------|

GUITAR 2 - Comes in after two measures of Gm7
e|---3--X----X---------------------------3--|
B|---3--X----X-6--3-----------3-6----3-6----|
G|---3--X----X------------3-5----3-5--------|  And repeats this general
D|-5-----------------etc--------------------|  pattern. Again, see: song.
A|------------------------------------------|
E|------------------------------------------|


This is played during the verse. Then the chorus:
   D#maj7  Dm7   G
e|--10-/----5----3--3-X----3-----------|
B|--11-/----6----3--3-X----3---X-------|
G|--12-/----5----4--4-X----4---X----0--|
D|--13-/----7----5--5-X----5---X-3h5---|
A|---------------5--5-X----5---X-------|
E|---------------3--3-X----3---X-------|

Then the same thing, BUT you play a Gm, instead of a G!


[Verse]

Gm7               
   I look to the sky with sunken eyes
Gm7                                             [riff]
   For the feeling of summer has left me behind
Gm7                                             [riff]
   Out there this jungle it creeps and then it turns
Gm7                                     F     Cm
   Your vision lies hidden until your retu -  urn
Gm7
   Winter coat, frozen toe, the rain is pouring
Gm7     
   So what you know, the nights go cold
                            F      Cm
   Did you make the most of i-    -it


[Chorus]

 D#maj7        Dm7            G
Ode to the summer, this feeling
 D#maj7          Dm7     Gm
Be sure to remember me
 D#maj7       Dm7               G
I need to know that you'll come back
       D#maj7      Dm7     Gm
After winter's wasted spring


I needed to, not in this cold life
I'm not ready for you to go, no, no
Hold on until tomorrow
One more day or two


[Verse]

Sunken foot, frozen toe, the rain is pouring
As winter calls, nature shouts, has summer forsake us
So what you know, the nights got cold, did you make the most of it
Oh great clouds are forming in the skies to the east
       Gm             A#    C      Dm
In the morning light

This part is a bit odd! Here are the chords, followed by
the approximate guitar part:

Gm      A#   C       Dm (Gm)
Gm      A#   C       Dm (Gm)
Gm      A#   C       Dm (Gm)
Gm      A#   C       Dm

e|--------------------------------------|
B|--------------------------------------|
G|--------------------------------------|
D|----------------------------3---5-----|
A|---------1----3--3---5----5---5-------|
E|-3--3------------------------------5--|


[Chorus]
Ode to the summer this feeling...


[Interlude]

And then the funky bit!
-PM~~~~~~~~~~~~~~~~~~~~~~~~~~~~~~~~~~
e|--------6---------------------------|
B|-8----6---6-8----------3------------|
G|-------------------3-5---5---3------|
D|-----------------5-------------5----|
A|------------------------------------|
E|------------------------------------|

e|------------------------------------|
B|-6h8--6--3-----------3--------------|
G|------------3h5--3-5---5--3---------|
D|-----------------------------5------|
A|------------------------------------|
E|------------------------------------|

e|------------------------------------|
B|------------------------------------|
G|---------------3-5-5-5b7r5--3-5-3---|
D|-----------3-5--------------------5-|
A|-----1-3-5--------------------------|
E|-3-3--------------------------------|

e|------------------------------------------|
B|------------------------------------------|
G|------------------------------------------|
D|-3h5--3-------3---------------------------|
A|---------5--------5---3----1h3--1---------|
E|-----------------------------------3---1--|
                                       "Ode..."


[Chorus]

                        Cm7
...to the summer this feeling
 Gm                 Gm
Be sure to remember me
F                            Cm7
  I need to know that you'll come back
       Gm  
After winters wasted spring
F                           Cm7
   I needed to, not in this cold life
         Gm
I'm not ready for you to go, no, no
F                Cm7
 Hold on until tomorrow
        Gm  
In one day or two
        F
In one day or two
       Cm7
In one day or two
Gm    A#    C   Dm   (Gm)
Darling don't go


[Outro]

Gm   A#     C   Dm  (Gm)
Gm   A#     C   Dm  (Gm)
Gm   A#     C   Dm  Gm



************************************

| h  Hammer-on
| r  Release
| b  Bend
| /  Slide up

************************************
Suggest correction
Creating personal tab
Creating personal tab
You can edit any tab online and save it as your Personal.

You can edit, replace or remove any tab part or add personal notes – all changes will be seen only by you.

Personal tabs can be accessed anytime from any device, even offline.
Learn more »
Give kudos to tab author, rate the tab!
1 2 3 4 5
comments
print report bad tab
1 comment total.
0 reply
AeonOptic 1,862 Jul 31, 2016 05:48 AM

Nice one mate, was thinking of doing it myself and you nailed it!

guest
You may want to rate the tab now too:
select rating
Wanna post a correction for this tab? Suggest correction