Oops, an error
Loading. Please wait.

Bob Dylan Blues tab

version 1
version 1

Whole song

20,404 views 42 this week
3 commentsread comments
1 2 3 4 5
x 7
add to favorites
×
Save as Personal and add changes to this tab that will be seen only by you. Learn more ›
×
You can save this tab as Personal to edit and correct it or add notes. All changes will be seen only by you. Learn more »
launch autoscroll
font size
0
reset
how to read this tab
guitar tuner
edit
Autoscroll
slow
fast
+/-
esc
set tempo
stop
Syd Barrett
BOB DYLAN BLUES
transcribed by k@os

INTRO
        G                    D
e-------1--]-----------]-----2--]-------------]]
b-------0--]-----------]-----3--]-------------]]
g-------0--]-----------]-----2--]------0-2-0--]]   repeat
d-------0--]------0----]-----0--]--0h2--------]]   2 times
a-------2--]--0h2---2--]--0--x--]-------------]]
E--(3)--3--]-----------]-----x--]-------------]]

      C                    G                  A     D     G
e-----0--]-----------]-----1--]---------]-----0--]--2--]--1--]]
b-----1--]-----------]-----0--]---------]-----2--]--3--]--0--]]
g-----0--]--0h2-0----]-----0--]---------]-----2--]--2--]--0--]]
d-----2--]--------2--]--0--0--]--0-0----]-----2--]--0--]--0--]]
a--3--3--]-----------]-----2--]------2--]--0--0--]--x--]--2--]]
E-----x--]-----------]-----3--]---------]-----x--]--x--]--3--]]

G                               C9
Got the Bob Dylan blues and the Bob Dylan shoes
       G                          D    * D
And my clothes and my hair's in a mess
                                  G
But you know I just couldn't care less
                                   C9
Go on write me a song 'bout what's right and what's wrong
      G                       D    (*) D
'Bout God and my girl and all that
                           G
Quiet, while I make like a cat
                                    D
CHORUS: 'Cause I'm a poet don't you know it
        G            C
And the wind you can blow it
       G                D    (*) D
'Cause I'm mr.Dylan the king
                            G
And I'm free as a bird on a wing

Roam from town to town guess I get people down
But I don't care too much about that
'Cause my gut and my wallet are fat
Make a whole lotta dough but I deserve it though
I got soul and a good heart of gold
So sing about war and the cold

CHORUS: 'Cause I'm a poet ...

Well I sings about dreams and I rhymes it with seems
'Cause it seems that my dream always means
That I can prophecy all kinds of things
Well the guy that digs me should try hard to see
That he buys all my discs and a hat
And when I'm in town go see that

CHORUS: 'Cause I'm a poet ...

repeat INTRO

(*)
e-------------|
b-------------|
g-------------|
d------0------|
a--0h2---2-0--|
E-------------|

            
            
Suggest correction
Creating personal tab
Creating personal tab
You can edit any tab online and save it as your Personal.

You can edit, replace or remove any tab part or add personal notes – all changes will be seen only by you.

Personal tabs can be accessed anytime from any device, even offline.
Learn more »
comments
print report bad tab
3 comments total.
0 reply
Just Andrew 187 Aug 08, 2008 03:38 PM

Sounds great, good job

0 reply
Bartholomew 338 May 20, 2010 07:01 AM

Kind of disappointing this is so highly rated, because the chord progression is all wrong. For example, the verse starts on G and then switches to C on "blues" and to F on "Bob," and back to C on "clothes" and G on "mess."

+1 reply
Bartholomew 338 May 20, 2010 07:03 AM

e|--0-000-0-------|
B|--1-111-1-------|
G|--0-000-0-0-----|
D|--2-222-2--2p0--|
A|--3-333-3-------|
E|----------------|

e|--3-333---------333-3-333-3-333-3-------|
B|--0-000---------000-0-000-0-000-0-------|
G|--0-000---------000-0-000-0-000-0-------|
D|--0-000---0-----000-0-000-0-000-0-------|
A|--2-222--2-2p0--222-2-222-2-222-2--2h3--|
E|--3-333-3-----3-333-3-333-3-333-3-3-----|

e|--3-333-3-------|
B|--0-000-0-------|
G|--0-000-0-------|
D|--0-000-0-------|
A|--2-222-2--2h3--|
E|--3-333-3-3-----|

When transferring from the chorus to the intro, simply do this:

e|-------|
B|-------|
G|-------|
D|--3----|
A|---2---|
E|----2--|

Intro:

e|---333---------222----------|---333---------222----------|
B|---000---------333----------|---000---------333----------|
G|---000---------222----2p0h2-|---000---------222----2p0h2-|
D|---000----0----000---0------|---000----0----000---0------|
A|---222---2-2-0-000--0-------|---222---2-2-0-000--0-------|
E|-3-333--3------000----------|-3-333--3------000----------|

e|---000---------333---------|-000----222----333-3-|
B|---111---------000---------|-222----333----000-0-|
G|---000----0----000---------|-222--2-222----000-0-|
D|---222---2-2-0-000----0----|-222--0-000--0-000-0-|
A|-3-333--3------222---2-2-0-|------0------2-222-2-|
E|---------------333--3------|-------------3-333-3-|

G C F
-Got the Bob Dylan Blues, and the Bob Dylan shoes

C* G*
And my clothes' and my hair's in a mess

C
But you know i just couldn't care less

C F
Gonna write me a song, bout what's right and what's wrong

C G*
Bout' God and my girl and all that

C
Quiet while I make like a cat

-Chorus I:

C F C
Cos' I'm a poet, Don't ya know it?

F
And the wind.. ..You can blow it,

C G*
Cos' I'm Mr. Dylan the King

C
And I'm free as a bird on the wing

-Roam from town to town, guess I get people down,
But I don't care too much about that..
Cos' my gut and my wallet are fat

Make a whole lotta dough, but i deserve it though,
I got soul and a good heart of gold,
So I'll sing about war and the cold

-Chorus II:

C G**
Cos' I'm a poet, Don't ya know it?

C F
And the wind.. ..You can blow it,

C* G*
Cos' I'm Mr. Dylan the King

C
And I'm free as a bird on the wing

-Intro

-Well I sings about dreams, and I rhymes it with seems,
Cos' it seems that my dream always means..
That I can prophesy all kinds of things

Well the guy that digs me, should try hard to see,
That he buys all my disks in a hat..
And when I'm in town go see that [strum C a few more times]

-Chorus II [strum lightly]

-Intro [fade to a light strum]

guest
Wanna post a correction for this tab? Suggest correction