Oops, an error
Loading. Please wait.

City Talks chords

version 2
version 2

Whole song

  • These Chords are based on the studio recording of ... Show more
100 views 1 this week
no commentswrite comment
1 2 3 4 5
3 more votes to show rating
add to favorites
×
Save as Personal and add changes to this tab that will be seen only by you. Learn more ›
×
You can save this tab as Personal to edit and correct it or add notes. All changes will be seen only by you. Learn more »
launch autoscroll
font size
0
reset
transpose
0
reset
simplify chords
display chords
guitar tuner
edit
Autoscroll
slow
fast
+/-
esc
set tempo
stop
Strumming
There is no strumming pattern for this song yet. and get +5 IQ
[Chords]
C x32010
C#dim9 x4x030
Dm x00231
Dm6 x5340x
Em 022000
F x3321x
G 32000x
G6 320030
Am x02210

[Verse]
C      F              C        Am
City talks behind my back
           Dm6              G                C
Oh, you'd better stop your talking before I turn

[Instrumental]
   C               F                     C                F
e|-------------------------------------|-------------------------------------|
B|---------1------------1p0------------|---------1------------0h1p0----------|
G|------0------0--------2----0h2-------|------0------0--------2-----0h2------|
D|----2--------------3-----------0h3---|-2-----------------3------------0h3--|
A|-3---------3-----3-------------------|-3--3------3-----3-------------------|
E|-------------------------------------|-------------------------------------|

   C               F                     C
e|-------------------------------------|-------------------------------------|
B|---------1------------1p0------------|---------1------------1--------------|
G|------0------0--------2----0h2-------|------0------------0--------0--------|
D|-2-----------------3-----------0h3---|-2---------3-2------------2----------|
A|-3--3------3-----3-------------------|-3--3------3-3--3--------------------|
E|-------------------------------------|-------------------------------------|

[Verse]
C           F           C       Am
City streets, they are long
             Dm6               G               C
When you're sick and tried of walking on your own

[Instrumental]
   C               F                     C                F
e|-------------------------------------|-------------------------------------|
B|---------1------------1p0------------|---------1------------0h1p0----------|
G|------0------0--------2----0h2-------|------0------0--------2-----0h2------|
D|----2--------------3-----------0h3---|-2-----------------3------------0h3--|
A|-3---------3-----3-------------------|-3--3------3-----3-------------------|
E|-------------------------------------|-------------------------------------|

   C               F                     C               F
e|-------------------------------------|-------------------------------------|
B|---------1------------1p0------------|---------1---------------1-----------|
G|------0------0--------2----0h2-------|------0-------0-------2------2-------|
D|-2-----------------3-----------0h3---|-2----------2-------3------3---------|
A|-3--3------3-----3-------------------|-3--3------------3-------------------|
E|-------------------------------------|-------------------------------------|

[Verse]
C        F           C            F
I have stones in my pockets
          C           F          Am
Put them down on the road
         Dm6           G               C
So I'll find a way to come back to my home

[Instrumental]
   C               F                     C                F
e|-------------------------------------|-------------------------------------|
B|---------1------------1p0------------|---------1------------0h1p0----------|
G|------0------0--------2----0h2-------|------0------0--------2-----0h2------|
D|----2--------------3-----------0h3---|-2-----------------3------------0h3--|
A|-3---------3-----3-------------------|-3--3------3-----3-------------------|
E|-------------------------------------|-------------------------------------|

   C               F                     C
e|-------------------------------------|-------------------------------------|
B|---------1------------1p0------------|---------1------------1--------------|
G|------0------0--------2----0h2-------|------0------------0--------0--------|
D|-2-----------------3-----------0h3---|-2---------3-2------------2----------|
A|-3--3------3-----3-------------------|-3--3------3-3--3--------------------|
E|-------------------------------------|-------------------------------------|

[Verse]
C       F          C        Am
Dunno when I'll return
        Dm6           G                C
Oh, I'd rather stop talking or coming back

[Outro]
C Am Em C#dim9 Dm G6
C Am Em C#dim9 Dm G6
C Am Em C#dim9 Dm G6 C


***********************************

| h   Hammer-on
| p   Pull-off

***********************************

            
            
Suggest correction
Creating personal tab
Creating personal tab
You can edit any tab online and save it as your Personal.

You can edit, replace or remove any tab part or add personal notes – all changes will be seen only by you.

Personal tabs can be accessed anytime from any device, even offline.
Learn more »
Give kudos to tab author, rate the tab!
1 2 3 4 5
comments
print report bad tab
guest
You may want to rate the tab now too:
select rating
Wanna post a correction for this tab? Suggest correction