Oops, an error
Loading. Please wait.

Obstacles intro tab

version 1
version 1

Intro

Whole song

  • This version including where to sing the lyrics according to the guitar.

Interactive

154,129 views 696 this week
26 commentsread comments
1 2 3 4 5
x 248
add to favorites
×
Save as Personal and add changes to this tab that will be seen only by you. Learn more ›
×
You can save this tab as Personal to edit and correct it or add notes. All changes will be seen only by you. Learn more »
launch autoscroll
font size
0
reset
how to read this tab
guitar tuner
edit
Autoscroll
slow
fast
+/-
esc
set tempo
stop
[Main Riff]

e||-------------0-----------------0-----------------|
B||-------1--------1-----1--3--------3-----1-----1--|
G||----2-----2--------2--------2--------2-----2-----|
D||-3-----------------------------------------------|
A||-------------------------------------------------|
E||-------------------------------------------------|

e|-------------0-----------------0-----------------||
B|-------1--------1-----1--3--------3-----1-----1--||
G|----------0--------0--------0--------0-----0-----||
D|----2--------------------------------------------||
A|-3-----------------------------------------------||
E|-------------------------------------------------||

            
            
Suggest correction
Creating personal tab
Creating personal tab
You can edit any tab online and save it as your Personal.

You can edit, replace or remove any tab part or add personal notes – all changes will be seen only by you.

Personal tabs can be accessed anytime from any device, even offline.
Learn more »
comments
print report bad tab
26 comments total. Showing first comments.
+5 reply
Pastis94 10 Jun 27, 2013 02:00 PM

Awesome !

+42 reply
rollingwolfe 10 Feb 01, 2015 05:55 PM

Life is Strange :)
Also thanks for the tabs!

+31 reply
Fap4Exp 31 Feb 02, 2015 03:19 PM

Life is strange sent me too, couldn't resist.

guest
You may want to rate the tab now too:
select rating
Wanna post a correction for this tab? Suggest correction