Oops, an error
Loading. Please wait.

Obstacles tab

version 2
version 2

Whole song

  • This version including where to sing the lyrics according to the guitar.

Interactive

6,343 views 195 this week
2 commentsread comments
1 2 3 4 5
x 25
add to favorites
×
Save as Personal and add changes to this tab that will be seen only by you. Learn more ›
×
You can save this tab as Personal to edit and correct it or add notes. All changes will be seen only by you. Learn more »
launch autoscroll
font size
0
reset
how to read this tab
guitar tuner
edit
Autoscroll
slow
fast
+/-
esc
set tempo
stop
About this tab version
This version including where to sing the lyrics according to the guitar.
Song: Obstacles
Artist: Syd Matters
Album: Someday We Will Foresee Obstacles

Tuning: Standard  Capo on 3rd 
Gtr 1 Electric  Gtr 2 Acoustic


[Intro]

Guitar 1
e|-----------0------------0---------------------0------------0---------------|
B|-------1-----1---1--3-----3---1---1-------1-----1---1--3-----3---1---1-----|
G|-----2---2-----2------2-----2---2-------0---0-----0------0-----0---0-------|
D|---3-----------------------------------------------------------------------|
A|--------------------------------------3------------------------------------|
E|---------------------------------------------------------------------------|

Guitar 1 and 2 
e|-----------0------------0---------------------0------------0---------------|
B|-------1-----1---1--3-----3---1---1-------1-----1---1--3-----3---1---1-----|
G|-----2---2-----2------2-----2---2-------0---0-----0------0-----0---0-------|
D|---3-----------------------------------------------------------------------| x2
A|--------------------------------------3------------------------------------|
E|---------------------------------------------------------------------------|


[Verse 1]

Guitar 1 and 2
e|-----------0------------0---------------------0------------0---------------|
B|-------1-----1---1--3-----3---1---1-------1-----1---1--3-----3---1---1-----|
G|-----2---2-----2------2-----2---2-------0---0-----0------0-----0---0-------|
D|---3-----------------------------------------------------------------------|
A|--------------------------------------3------------------------------------|
E|---------------------------------------------------------------------------|
     Let's    say     Sunshine     for  everyone             But as far as I

e|-----------0------------0---------------------0------------0---------------|
B|-------1-----1---1--3-----3---1---1-------1-----1---1--3-----3---1---1-----|
G|-----2---2-----2------2-----2---2-------0---0-----0------0-----0---0-------|
D|---3-----------------------------------------------------------------------|
A|--------------------------------------3------------------------------------|
E|---------------------------------------------------------------------------|
                      Can remember

e|-----------0------------0---------------------0------------0---------------|
B|-------1-----1---1--3-----3---1---1-------1-----1---1--3-----3---1---1-----|
G|-----2---2-----2------2-----2---2-------0---0-----0------0-----0---0-------|
D|---3-----------------------------------------------------------------------|
A|--------------------------------------3------------------------------------|
E|---------------------------------------------------------------------------|
     We've   been     migratory         animals          living under

e|-----------0------------0---------------------0------------0---------------|
B|-------1-----1---1--3-----3---1---1-------1-----1---1--3-----3---1---1-----|
G|-----2---2-----2------2-----2---2-------0---0-----0------0-----0---0-------|
D|---3-----------------------------------------------------------------------|
A|--------------------------------------3------------------------------------|
E|---------------------------------------------------------------------------|
                      Changing weather


[Verse 2]

e|-----------0------------0---------------------0------------0---------------|
B|-------1-----1---1--3-----3---1---1-------1-----1---1--3-----3---1---1-----|
G|-----2---2-----2------2-----2---2-------0---0-----0------0-----0---0-------|
D|---3-----------------------------------------------------------------------|
A|--------------------------------------3------------------------------------|
E|---------------------------------------------------------------------------|
     Someday          we will  foresee  obstacles       through the blizzard

e|-----------0------------0---------------------0------------0---------------|
B|-------1-----1---1--3-----3---1---1-------1-----1---1--3-----3---1---1-----|
G|-----2---2-----2------2-----2---2-------0---0-----0------0-----0---0-------|
D|---3-----------------------------------------------------------------------|
A|--------------------------------------3------------------------------------|
E|---------------------------------------------------------------------------|
                      through the blizzard

e|-----------0------------0---------------------0------------0---------------|
B|-------1-----1---1--3-----3---1---1-------1-----1---1--3-----3---1---1-----|
G|-----2---2-----2------2-----2---2-------0---0-----0------0-----0---0-------|
D|---3-----------------------------------------------------------------------|
A|--------------------------------------3------------------------------------|
E|---------------------------------------------------------------------------|
     Today            we will sell our uniforms          live together

e|-----------0------------0---------------------0------------0---------------|
B|-------1-----1---1--3-----3---1---1-------1-----1---1--3-----3---1---1-----|
G|-----2---2-----2------2-----2---2-------0---0-----0------0-----0---0-------|
D|---3-----------------------------------------------------------------------|
A|--------------------------------------3------------------------------------|
E|---------------------------------------------------------------------------|
                      Live together


[Bridge]

e|-----------0------------0---------------------0------------0---------------|
B|-------1-----1---1--3-----3---1---1-------1-----1---1--3-----3---1---1-----|
G|-----2---2-----2------2-----2---2-------0---0-----0------0-----0---0-------|
D|---3-----------------------------------------------------------------------| x8
A|--------------------------------------3------------------------------------|
E|---------------------------------------------------------------------------|


[Chorus]

e|-----------0------------0---------------------0------------0---------------|  
B|-------1-----1---1--3-----3---1---1-------1-----1---1--3-----3---1---1-----|   
G|-----2---2-----2------2-----2---2-------0---0-----0------0-----0---0-------|  
D|---3-----------------------------------------------------------------------|  
A|--------------------------------------3------------------------------------|  
E|---------------------------------------------------------------------------|  
     We played        hide and seek in  waterfalls       we were younger    
                                                                                  
e|-----------0------------0---------------------0------------0---------------|  
B|-------1-----1---1--3-----3---1---1-------1-----1---1--3-----3---1---1-----|  
G|-----2---2-----2------2-----2---2-------0---0-----0------0-----0---0-------|  
D|---3-----------------------------------------------------------------------|  
A|--------------------------------------3------------------------------------|  
E|---------------------------------------------------------------------------|  
                      we were younger


[Outro]

Guitar 2
e|-----------0------------0---------------------0------------0---------------|
B|-------1-----1---1--3-----3---1---1-------1-----1---1--3-----3---1---1-----|
G|-----2---2-----2------2-----2---2-------0---0-----0------0-----0---0-------|
D|---3-----------------------------------------------------------------------|
A|--------------------------------------3------------------------------------|
E|---------------------------------------------------------------------------|
     Someday          we will  foresee  obstacles       through the blizzard

e|-----------0------------0---------------------0-----------0---|
B|-------1-----1---1--3-----3---1---1-------1-----1---1--3--1---|
G|-----2---2-----2------2-----2---2-------0---0-----0-------0---|
D|---3------------------------------------------------------2---|
A|--------------------------------------3-------------------3---|
E|--------------------------------------------------------------|
                      Through the blizzard

            
            
Suggest correction
Creating personal tab
Creating personal tab
You can edit any tab online and save it as your Personal.

You can edit, replace or remove any tab part or add personal notes – all changes will be seen only by you.

Personal tabs can be accessed anytime from any device, even offline.
Learn more »
comments
print report bad tab
2 comments total.
0 reply
MrMarexo 125 Dec 19, 2016 03:40 AM

good accurate tab...you need more 5-star ratings

guest
You may want to rate the tab now too:
select rating
Wanna post a correction for this tab? Suggest correction