Oops, an error
Loading. Please wait.

To All Of You tab

version 2
version 2

Whole song

Interactive

1,063 views 21 this week
no commentswrite comment
1 2 3 4 5
x 3
add to favorites
×
Save as Personal and add changes to this tab that will be seen only by you. Learn more ›
×
You can save this tab as Personal to edit and correct it or add notes. All changes will be seen only by you. Learn more »
launch autoscroll
font size
0
reset
how to read this tab
guitar tuner
edit
Autoscroll
slow
fast
+/-
esc
set tempo
stop
Song: To All Of You
Artist: Syd Matters
Album: Someday We Will Foresee Obstacles
Tuning: Standard Capo on 4th  Acoustic Guitar


[Intro]

e|--------------------------------------------------------------|
B|-----------1---------------1--------------1---------------1---|
G|-0h4---0---------2p0---0--------0h4---0---------2p0---0-------|
D|-----2-------2-------2-------2------2-------2-------2-------2-|
A|-0---------------0--------------0---------------0-------------|
E|--------------------------------------------------------------|

e|-----------------------------------------------------------------|
B|-----------1---------------1---------------1---------------0-----|
G|-0h4---0---------2p0---0---------0h4---0---------2p0---0---------|
D|-----2-------0-------2-------2-------2-------0-------0-------0---|
A|-3---------------0---------------3-------------------------------|
E|-------------------------------------------------2---------------|

e|---------------------------------------------------------------|
B|-----------3---------------3---------------3---------------0---|
G|-0h4---0---------2p0---0---------0h4---0---------2p0---0-------|  
D|-----0-------0-------0-------0-------0-------0-------0-------2-| 
A|---------------------------------------------------------------|
E|-3---------------3---------------3---------------3-------------|

e|--------------------------------------------------------------|
B|-----------1---------------1--------------1---------------1---|
G|-0h4---0---------2p0---0--------0h4---0---------2p0---0-------|
D|-----2-------2-------2-------2------2-------2-------2-------2-|
A|-0---------------0--------------0---------------0-------------|
E|--------------------------------------------------------------|

e|-----------------------------------------------------------------|
B|-----------1---------------1---------------1---------------0-----|
G|-0h4---0---------2p0---0---------0h4---0---------2p0---0---------|
D|-----2-------0-------2-------2-------2-------0-------0-------0---|
A|-3---------------0---------------3-------------------------------|
E|-------------------------------------------------2---------------|

e|--------------------------------------------------------------|
B|-----------3---------------1--------------3-------------1-----|
G|-0h4---0---------2p0---0--------0h4---0---------2p0---0-------|
D|-----0-------0-------0-------2------0-------0-------0-----2---|
A|--------------------------------------------------------------|
E|-3---------------3--------------3-----------------------------|


[Verse 1]

e|-----------------------------------------------------------------|
B|-3---------0---------------0-----3---------0-----1---------1-----|
G|-------0---------------0---------------0---------------2---------|
D|-----0-------0-------0-------0-------0-------0-------0-------0---|
A|---------------------------------2-------------------------------|
E|-3---------------3-------------------------------2---------------|

e|-----------------------------------------------------------------|
B|-3-------1-----------------1-----3---------0---------------3-----|
G|-------2-------2-------2---------------5---------4h5---5---------|
D|-----2-------2---0h2---------0---------------4-------4-----------|
A|-0-------0-----------------------5---------------------------5---|
E|-----------------------------------------------------------------|

e|-----------------------------------------------------------------||
B|-0-------0---------------0-----3---------0-----1---------1-------||
G|-------0-------0-----0---------------0---------------2-----------||
D|-----0-------0-----0-------0-------0-------0-------0-------0-----||
A|-----------------2-------------2---------------------------------||
E|-3-------3-------------------------------------2-----------------||
                                                                    |  x2
e|-----------------------------------------------------------------||
B|-3-------1-----------------1-----3---------0---------------3-----||
G|-------2-------2-------2---------------5---------4h5---5---------||
D|-----2-------2---0h2---------0---------------4-------4-----------||
A|-0-------0-----------------------5---------------------------5---||
E|-----------------------------------------------------------------||

e|-----------------------------------------------------------------|
B|-----------0---------------0---------------0---------------0-----|
G|-------0---------------0---------------0---------------0---------|
D|-----2-------0-------2-------0-------2-------0-------2-------0---|
A|-----------------------------------------------------------------|
E|-0---------------0---------------0---------------0---------------|


[Refrain]

e|--------------------------------------------------------------|
B|-----------1---------------1--------------1---------------1---|
G|-0h4---0---------2p0---0--------0h4---0---------2p0---0-------|
D|-----2-------2-------2-------2------2-------2-------2-------2-|
A|-0---------------0--------------0---------------0-------------|
E|--------------------------------------------------------------|

e|-----------------------------------------------------------------|
B|-----------1---------------1---------------1---------------0-----|
G|-0h4---0---------2p0---0---------0h4---0---------2p0---0---------|
D|-----2-------0-------2-------2-------2-------0-------0-------0---|
A|-3---------------0---------------3-------------------------------|
E|-------------------------------------------------2---------------|

e|--------------------------------------------------------------|
B|-----------3---------------1--------------3-------------1-----|
G|-0h4---0---------2p0---0--------0h4---0---------2p0---0-------|
D|-----0-------0-------0-------2------0-------0-------0-----2---|
A|--------------------------------------------------------------|
E|-3---------------3--------------3-----------------------------|


[Verse 2]

e|-----------------------------------------------------------------|
B|-3---------0---------------0-----3---------0-----1---------1-----|
G|-------0---------------0---------------0---------------2---------|
D|-----0-------0-------0-------0-------0-------0-------0-------0---|
A|---------------------------------2-------------------------------|
E|-3---------------3-------------------------------2---------------|

e|-----------------------------------------------------------------|
B|-3-------1-----------------1-----3---------0---------------3-----|
G|-------2-------2-------2---------------5---------4h5---5---------|
D|-----2-------2---0h2---------0---------------4-------4-----------|
A|-0-------0-----------------------5---------------------------5---|
E|-----------------------------------------------------------------|

e|-----------------------------------------------------------------|
B|-0-------0---------------0-----3---------0-----1---------1-------|
G|-------0-------0-----0---------------0---------------2-----------|
D|-----0-------0-----0-------0-------0-------0-------0-------0-----|
A|-----------------2-------------2---------------------------------|
E|-3-------3-------------------------------------2-----------------|
                                                                    
e|-----------------------------------------------------------------|
B|-3-------1-----------------1-----3---------0---------------3-----|
G|-------2-------2-------2---------------5---------4h5---5---------|
D|-----2-------2---0h2---------0---------------4-------4-----------|
A|-0-------0-----------------------5---------------------------5---|
E|-----------------------------------------------------------------|

e|-----------------------------------------------------------------|
B|-----------0---------------0---------------0---------------0-----|
G|-------0---------------0---------------0---------------0---------|
D|-----2-------0-------2-------0-------2-------0-------2-------0---|
A|-----------------------------------------------------------------|
E|-0---------------0---------------0---------------0---------------|


[Chorus]

e|-----------------------------------------------------------------||
B|-----------1---------------1--------------1---------------1------||
G|-0h4---0---------2p0---0--------0h4---0---------2p0---0----------||
D|-----2-------2-------2-------2------2-------2-------2-------2----||
A|-0---------------0--------------0---------------0----------------||
E|-----------------------------------------------------------------||
                                                                    |
e|-----------------------------------------------------------------||
B|-----------1---------------1---------------1---------------0-----||
G|-0h4---0---------2p0---0---------0h4---0---------2p0---0---------||
D|-----2-------0-------2-------2-------2-------0-------0-------0---||  x2
A|-3---------------0---------------3-------------------------------||
E|-------------------------------------------------2---------------||
                                                                   ||    
e|-----------------------------------------------------------------||
B|-----------3---------------1--------------3-------------1--------||
G|-0h4---0---------2p0---0--------0h4---0---------2p0---0----------||
D|-----0-------0-------0-------2------0-------0-------0-----2------||
A|-----------------------------------------------------------------||
E|-3---------------3--------------3--------------------------------||

e|--------------------------------------------------------------|
B|-----------1---------------1--------------1---------------1---|
G|-0h4---0---------2p0---0--------0h4---0---------2p0---0-------|
D|-----2-------2-------2-------2------2-------2-------2-------2-|
A|-0---------------0--------------0---------------0-------------|
E|--------------------------------------------------------------|

e|-----------------------------------------------------------------|
B|-----------1---------------1---------------1---------------0-----|
G|-0h4---0---------2p0---0---------0h4---0---------2p0---0---------|
D|-----2-------0-------2-------2-------2-------0-------0-------0---|
A|-3---------------0---------------3-------------------------------|
E|-------------------------------------------------2---------------|


[Verse 3]

e|-----------------------------------------------------------------||
B|-3---------0---------------0-----3---------0-----1---------1-----||
G|-------0---------------0---------------0---------------2---------||
D|-----0-------0-------0-------0-------0-------0-------0-------0---||
A|---------------------------------2-------------------------------||
E|-3---------------3-------------------------------2---------------||
                                                                    |  x2
e|-----------------------------------------------------------------||
B|-3-------1-----------------1-----3---------0---------------3-----||
G|-------2-------2-------2---------------5---------4h5---5---------||
D|-----2-------2---0h2---------0---------------4-------4-----------||
A|-0-------0-----------------------5---------------------------5---||
E|-----------------------------------------------------------------||

e|-----------------------------------------------------------------|
B|-0-------0---------------0-----3---------0-----1---------1-------|
G|-------0-------0-----0---------------0---------------2-----------|
D|-----0-------0-----0-------0-------0-------0-------0-------0-----|
A|-----------------2-------------2---------------------------------|
E|-3-------3-------------------------------------2-----------------|
                                                                    
e|-----------------------------------------------------------------|
B|-3-------1-----------------1-----3---------0---------------3-----|
G|-------2-------2-------2---------------5---------4h5---5---------|
D|-----2-------2---0h2---------0---------------4-------4-----------|
A|-0-------0-----------------------5---------------------------5---|
E|-----------------------------------------------------------------|

e|-----------------------------------------------------------------|
B|-----------0---------------0---------------0---------------0-----|
G|-------0---------------0---------------0---------------0---------|
D|-----2-------0-------2-------0-------2-------0-------2-------0---|
A|-----------------------------------------------------------------|
E|-0---------------0---------------0---------------0---------------|


[Chorus 2]

e|-----------------------------------------------------------------||
B|-----------1---------------1--------------1---------------1------||
G|-0h4---0---------2p0---0--------0h4---0---------2p0---0----------||
D|-----2-------2-------2-------2------2-------2-------2-------2----||
A|-0---------------0--------------0---------------0----------------||
E|-----------------------------------------------------------------||
                                                                    |
e|-----------------------------------------------------------------||
B|-----------1---------------1---------------1---------------0-----||
G|-0h4---0---------2p0---0---------0h4---0---------2p0---0---------||
D|-----2-------0-------2-------2-------2-------0-------0-------0---||  x2
A|-3---------------0---------------3-------------------------------||
E|-------------------------------------------------2---------------||
                                                                   ||    
e|-----------------------------------------------------------------||
B|-----------3---------------1--------------3-------------1--------||
G|-0h4---0---------2p0---0--------0h4---0---------2p0---0----------||
D|-----0-------0-------0-------2------0-------0-------0-----2------||
A|-----------------------------------------------------------------||
E|-3---------------3--------------3--------------------------------||

e|--------------------------------------------------------------|
B|-----------1---------------1--------------1---------------1---|
G|-0h4---0---------2p0---0--------0h4---0---------2p0---0-------|
D|-----2-------2-------2-------2------2-------2-------2-------2-|
A|-0---------------0--------------0---------------0-------------|
E|--------------------------------------------------------------|

e|-----------------------------------------------------------------|
B|-----------1---------------1---------------1---------------0-----|
G|-0h4---0---------2p0---0---------0h4---0---------2p0---0---------|
D|-----2-------0-------2-------2-------2-------0-------0-------0---|
A|-3---------------0---------------3-------------------------------|
E|-------------------------------------------------2---------------|


**********************************

| h  Hammer-On
| p  Pull Off

**********************************
Suggest correction
Creating personal tab
Creating personal tab
You can edit any tab online and save it as your Personal.

You can edit, replace or remove any tab part or add personal notes – all changes will be seen only by you.

Personal tabs can be accessed anytime from any device, even offline.
Learn more »
Give kudos to tab author, rate the tab!
1 2 3 4 5
comments
print report bad tab
guest
You may want to rate the tab now too:
select rating
Wanna post a correction for this tab? Suggest correction