Oops, an error
Loading. Please wait.

Lord Of The Dance tab

3,762 views 1 this week
2 commentsread comments
1 2 3 4 5
x 3
add to favorites
×
Save as Personal and add changes to this tab that will be seen only by you. Learn more ›
×
You can save this tab as Personal to edit and correct it or add notes. All changes will be seen only by you. Learn more »
launch autoscroll
font size
0
reset
how to read this tab
guitar tuner
edit
Autoscroll
slow
fast
+/-
esc
set tempo
stop
Author
Difficulty
I'm fairly sure this is right, it sounds fine anyway.
If you want to know what it sounds like or what the notation for it is go to:
http://www.8notes.com/scores/5389.asp?ftype=gif

I haven't bothered with the timing or anything, because its pretty simple anyway. If you 
stuck go to the link above and theres a little player that plays the tune exactly for you.

e|----------------------------------------------------|
B|----------------------------------------------------|
G|---------4-2-4-5-7-7-7-4-4-4-2-2-2-2-2-4-5-4-2-5-3--|
D|---5-5-5--------------------------------------------|
A|-5--------------------------------------------------|
E|----------------------------------------------------|

  ---------------------------------------------------|
  ---------------------------------------------------|
  -----------4-2-4-5-7-7-7-4-4-2-2-4-2---------------|
  -----5-5-5---------------------------5-5-5---------|
  -5-5-----------------------------------------------|
  ---------------------------------------------------|

  ---------------------------------------------------|
  ---------------------------------------------------|
  -7-4-2-4-5-4-2---4-4-4-7-5-4-2-2-2-----------------|
  ---------------5-----------------------------------|
  ---------------------------------------------------|
  ---------------------------------------------------|

  ---------------------------------------------------|
  ---------------------------------------------------|
  -----------2-4-2-4-5-7-5-4-2--2-4-4-2--------------|
  -----5-5-5----------------------------5-5-5--------|
  -5-5-----------------------------------------------|
  ---------------------------------------------------|

There ya go.
Suggest correction
Creating personal tab
Creating personal tab
You can edit any tab online and save it as your Personal.

You can edit, replace or remove any tab part or add personal notes – all changes will be seen only by you.

Personal tabs can be accessed anytime from any device, even offline.
Learn more »
Give kudos to tab author, rate the tab!
1 2 3 4 5
comments
print report bad tab
2 comments total.
0 reply
LiamNCFC 22 Dec 05, 2012 11:24 AM

For anyone reading this in the year 2025 or whenever if you care:

The original tab has a few mistakes: for instance in contains A# which out of key and you can make it easier anyway. (Who knows if this attempt to tab will work?)

One note per syllable.

E|---------------------------|
B|----------0---0-1-3--3-3-0-|
G|---0--0-0---2--------------|
D|-0-------------------------|
A|---------------------------|
E|---------------------------|

E|---------------------------|
B|-0-0-----------------------|
G|-----2-2-2-2-2-4-5-4-2-0---|
D|-------------------------4-|
A|---------------------------|
E|---------------------------|

E|-----------------------------|
B|------------0---0-1-3--3-3-0-|
G|-----0--0-0---2--------------|
D|-0-0-------------------------|
A|-----------------------------|
E|-----------------------------|

E|--------------------|
B|-0-----0------------|
G|---2-2---2-0-0-0----|
D|--------------------|
A|--------------------|
E|--------------------|

E|-----------------------|
B|-3----0---0-1-0--------|
G|--------2-------2-0----|
D|-----------------------|
A|-----------------------|
E|-----------------------|

E|-------------------|
B|-0-0-0-3-1-0-------|
G|-------------2-2-2-|
D|-------------------|
A|-------------------|
E|-------------------|

E|-------------------------|
B|---------------0---0-1-3-|
G|------0-0-0--2---2-------|
D|-0-0---------------------|
A|-------------------------|
E|-------------------------|

E|-------------------------|
B|-1-0-----0---0-0---------|
G|-----2-2---2-----2-2-2-2-|
D|-------------------------|
A|-------------------------|
E|-------------------------|

0 reply
LiamNCFC 22 Dec 05, 2012 11:29 AM

Sorry very last box should be:

E|---------------------|
B|-1-0-----0-0---------|
G|-----2-2-----2-0-0-0-|
D|---------------------|
A|---------------------|
E|---------------------|

guest
You may want to rate the tab now too:
select rating
Wanna post a correction for this tab? Suggest correction