Oops, an error
Loading. Please wait.

Incoming Bass Tab

181 views 1 this week
no commentswrite comment
1 2 3 4 5
2 more votes to show rating
add to favorites
launch autoscroll
font size
0
reset
guitar tuner
Autoscroll
slow
fast
+/-
esc
set tempo
stop
Help us to improve Ultimate-Guitar.com Take our survey!
×
Difficulty
Tuning
intermediate
B F# B E G# C#
Incoming bass tabs
intro
verse
E-----------|-------------|-------------------|
B-----------|-------------|-------------------|
F-----------|-------------|-------------------|
B-4-3-0-2-1-|-4-3-0-2-1-0-|-4-3-0-2-1-0-1-0-1-|

f|rst half play 3 t|mes 4th t|me play second half and to f|n|sh play last half

E---0-0-|-------|
B-4-----|-4-----|
F-------|-------|
B-------|---0-0-|

play f|rst half 14 t|mes, then 2nd 8 t|mes back to f|rst ag|n for 8 bars and to f|n|sh 8
for the second

E---------------------|-----------------55-|
B---------------------|-------------44-----|
F-----------------4-4-|--------------------|
B-0h1-0h1-0h1-0h1-----|-0h1-0h1-oh1--------|

Play f|rst half for 3 bars then second after each 3

verse
E-----------|-------------|-------------------|
B-----------|-------------|-------------------|
F-----------|-------------|-------------------|
B-4-3-0-2-1-|-4-3-0-2-1-0-|-4-3-0-2-1-0-1-0-1-|

f|rst half play 3 t|mes 4th t|me play second half and to f|n|sh play last half

E-----------------------------------|------------||
B-----------------------------------|------------||
F-----------------------------------|------------||
B-2-2-2-1--2-2-2-1--2-2-2-1-2-2-2-1-|0-0-0-1-----||

play second bar 26 t|mes

outro
E-----------|-------------|---------------------||
B-----------|-------------|---------------------||
F-----------|-------------|---------------------||
B-4-3-0-2-1-|-4-3-0-2-1-0-|-4-3-0-2-1-0-1-0-1---||
Suggest correction
Give kudos to tab author, rate the tab!
1 2 3 4 5
comments
print report bad tab
guest
You may want to rate the tab now too:
select rating
Wanna post a correction for this tab? Suggest correction