Oops, an error
Loading. Please wait.

After Lifeless Years Guitar Pro

version 1
version 1

Whole song

Interactive

25,544 views 27 this week
5 commentsread comments
1 2 3 4 5
excellent!
x 12
add to favorites
guitar tuner
Autoscroll
slow
fast
+/-
esc
set tempo
stop
Help us to improve Ultimate-Guitar.com Take our survey!
×
Author
Filesize
Instruments
skotyb 318
98 Kb
rhythm guitar #1, rhythm guitar #2, lead guitar, percussion
"After Lifeless Years"
demo version
Play now

or get full version for Free

Get full version now!
To learn and play this song
in Tab Pro, start free trial
Start free trial

or get $10 off Welcome Bonus

Get welcome bonus
Get access to Tab Pro version of “After Lifeless Years”!
Tab Pro is a premium guitar tab service, available on PC, Mac, iOS and Android
START FREE TRIAL
Your download will start in 7 seconds
×
Enter for a chance to win a FREE lesson from The Doors’ guitarist Robby Krieger plus other great prizes!
To download “After Lifeless Years” Guitar Pro tab click button below
Please note that you must have Guitar Pro software installed on your
computer in order to view this file.
comments
report bad tab
5 comments total. Showing first comments.
+1 reply
SaoSurvive 53 wrote on March 7 2009, 03:20 pm

Thanks I req this on the forum with no luck a while back great job even the parts you note you are unsure of I couldnt hear any mistakes

+1 reply
murakami1 10 wrote on March 7 2009, 07:27 pm

Thanks man, have fun!

0 reply
Lukige 1,774 wrote on January 28 2010, 07:21 pm

In case you were interested, I tabbed out the fast bit you couldn't manage. Enjoy:

--19-15-12h-15p-12----12h-14-----------------------12----|
-------------------19--------15h-19p-15-12h-15p-12----12-|
---------------------------------------------------------|
---------------------------------------------------------|
---------------------------------------------------------|
---------------------------------------------------------|

S S S S S S S S H
-----------------------------------------|
-----------------------------------------|
--17p-14-17p-14-12h-14p-12---------------|
---------------------------16-12~--------|
-----------------------------------------|
-----------------------------------------|

guest
You may want to rate the tab now too:
select rating
Please do not post tabs as comments. Select "correction" instead!